  0
SECTION
  2
HEADER
  9
$ACADVER
  1
AC1009
  9
$INSBASE
 10
0.0
 20
0.0
 30
0.0
  9
$EXTMIN
 10
-21.47581689588025
 20
-28.207597651968669
 30
0.0
  9
$EXTMAX
 10
41.996436899992467
 20
78.0
 30
0.0
  9
$LIMMIN
 10
0.0
 20
0.0
  9
$LIMMAX
 10
12.0
 20
9.0
  9
$ORTHOMODE
 70
     0
  9
$REGENMODE
 70
     1
  9
$FILLMODE
 70
     1
  9
$QTEXTMODE
 70
     0
  9
$MIRRTEXT
 70
     0
  9
$DRAGMODE
 70
     2
  9
$LTSCALE
 40
1.0
  9
$OSMODE
 70
   127
  9
$ATTMODE
 70
     1
  9
$TEXTSIZE
 40
0.2
  9
$TRACEWID
 40
0.05
  9
$TEXTSTYLE
  7
STANDARD
  9
$CLAYER
  8
0
  9
$CELTYPE
  6
BYLAYER
  9
$CECOLOR
 62
   256
  9
$DIMSCALE
 40
1.0
  9
$DIMASZ
 40
0.18
  9
$DIMEXO
 40
0.0625
  9
$DIMDLI
 40
0.38
  9
$DIMRND
 40
0.0
  9
$DIMDLE
 40
0.0
  9
$DIMEXE
 40
0.18
  9
$DIMTP
 40
0.0
  9
$DIMTM
 40
0.0
  9
$DIMTXT
 40
0.18
  9
$DIMCEN
 40
0.09
  9
$DIMTSZ
 40
0.0
  9
$DIMTOL
 70
     0
  9
$DIMLIM
 70
     0
  9
$DIMTIH
 70
     1
  9
$DIMTOH
 70
     1
  9
$DIMSE1
 70
     0
  9
$DIMSE2
 70
     0
  9
$DIMTAD
 70
     0
  9
$DIMZIN
 70
     0
  9
$DIMBLK
  1

  9
$DIMASO
 70
     1
  9
$DIMSHO
 70
     1
  9
$DIMPOST
  1

  9
$DIMAPOST
  1

  9
$DIMALT
 70
     0
  9
$DIMALTD
 70
     2
  9
$DIMALTF
 40
25.399999999999999
  9
$DIMLFAC
 40
1.0
  9
$DIMTOFL
 70
     0
  9
$DIMTVP
 40
0.0
  9
$DIMTIX
 70
     0
  9
$DIMSOXD
 70
     0
  9
$DIMSAH
 70
     0
  9
$DIMBLK1
  1

  9
$DIMBLK2
  1

  9
$DIMSTYLE
  2
STANDARD
  9
$DIMCLRD
 70
     0
  9
$DIMCLRE
 70
     0
  9
$DIMCLRT
 70
     0
  9
$DIMTFAC
 40
1.0
  9
$DIMGAP
 40
0.09
  9
$LUNITS
 70
     2
  9
$LUPREC
 70
     4
  9
$SKETCHINC
 40
0.1
  9
$FILLETRAD
 40
0.0
  9
$AUNITS
 70
     0
  9
$AUPREC
 70
     0
  9
$MENU
  1
.
  9
$ELEVATION
 40
0.0
  9
$PELEVATION
 40
0.0
  9
$THICKNESS
 40
0.0
  9
$LIMCHECK
 70
     0
  9
$BLIPMODE
 70
     0
  9
$CHAMFERA
 40
0.0
  9
$CHAMFERB
 40
0.0
  9
$SKPOLY
 70
     0
  9
$TDCREATE
 40
2457375.557840799
  9
$TDUPDATE
 40
2457378.9948455319
  9
$TDINDWG
 40
0.0001565972
  9
$TDUSRTIMER
 40
0.0001565972
  9
$USRTIMER
 70
     1
  9
$ANGBASE
 50
0.0
  9
$ANGDIR
 70
     0
  9
$PDMODE
 70
     0
  9
$PDSIZE
 40
0.0
  9
$PLINEWID
 40
0.0
  9
$COORDS
 70
     2
  9
$SPLFRAME
 70
     0
  9
$SPLINETYPE
 70
     6
  9
$SPLINESEGS
 70
     8
  9
$ATTDIA
 70
     0
  9
$ATTREQ
 70
     0
  9
$HANDLING
 70
     1
  9
$HANDSEED
  5
233
  9
$SURFTAB1
 70
     6
  9
$SURFTAB2
 70
     6
  9
$SURFTYPE
 70
     6
  9
$SURFU
 70
     6
  9
$SURFV
 70
     6
  9
$UCSNAME
  2

  9
$UCSORG
 10
0.0
 20
0.0
 30
0.0
  9
$UCSXDIR
 10
1.0
 20
0.0
 30
0.0
  9
$UCSYDIR
 10
0.0
 20
1.0
 30
0.0
  9
$PUCSNAME
  2

  9
$PUCSORG
 10
0.0
 20
0.0
 30
0.0
  9
$PUCSXDIR
 10
1.0
 20
0.0
 30
0.0
  9
$PUCSYDIR
 10
0.0
 20
1.0
 30
0.0
  9
$USERI1
 70
     0
  9
$USERI2
 70
     0
  9
$USERI3
 70
     0
  9
$USERI4
 70
     0
  9
$USERI5
 70
     0
  9
$USERR1
 40
0.0
  9
$USERR2
 40
0.0
  9
$USERR3
 40
0.0
  9
$USERR4
 40
0.0
  9
$USERR5
 40
0.0
  9
$WORLDVIEW
 70
     1
  9
$SHADEDGE
 70
     3
  9
$SHADEDIF
 70
    70
  9
$TILEMODE
 70
     1
  9
$MAXACTVP
 70
    64
  9
$PLIMCHECK
 70
     0
  9
$PEXTMIN
 10
0.0
 20
0.0
 30
0.0
  9
$PEXTMAX
 10
0.0
 20
0.0
 30
0.0
  9
$PLIMMIN
 10
0.0
 20
0.0
  9
$PLIMMAX
 10
12.0
 20
9.0
  9
$UNITMODE
 70
     0
  9
$VISRETAIN
 70
     1
  9
$PLINEGEN
 70
     0
  9
$PSLTSCALE
 70
     1
  0
ENDSEC
  0
SECTION
  2
TABLES
  0
TABLE
  2
VPORT
 70
     1
  0
VPORT
  2
*ACTIVE
 70
     0
 10
0.0
 20
0.0
 11
1.0
 21
1.0
 12
96.168533356502493
 22
25.396201174015669
 13
0.0
 23
0.0
 14
1.0
 24
1.0
 15
0.0
 25
0.0
 16
0.0
 26
0.0
 36
1.0
 17
0.0
 27
0.0
 37
0.0
 40
87.312150922448566
 41
1.7244755244755241
 42
50.0
 43
0.0
 44
0.0
 50
0.0
 51
0.0
 71
     0
 72
  1000
 73
     1
 74
     3
 75
     0
 76
     0
 77
     0
 78
     0
  0
ENDTAB
  0
TABLE
  2
LTYPE
 70
     1
  0
LTYPE
  2
CONTINUOUS
 70
     0
  3
Solid line
 72
    65
 73
     0
 40
0.0
  0
ENDTAB
  0
TABLE
  2
LAYER
 70
     5
  0
LAYER
  2
0
 70
     0
 62
     7
  6
CONTINUOUS
  0
LAYER
  2
DEFPOINTS
 70
     0
 62
     7
  6
CONTINUOUS
  0
ENDTAB
  0
TABLE
  2
STYLE
 70
     3
  0
STYLE
  2
STANDARD
 70
     0
 40
0.0
 41
1.0
 50
0.0
 71
     0
 42
0.2
  3
txt
  4

  0
STYLE
  2
ARIAL
 70
     0
 40
2.9505988023952101
 41
1.0
 50
0.0
 71
     0
 42
0.2
  3
txt
  4

  0
ENDTAB
  0
TABLE
  2
VIEW
 70
     0
  0
ENDTAB
  0
TABLE
  2
UCS
 70
     0
  0
ENDTAB
  0
TABLE
  2
APPID
 70
     5
  0
APPID
  2
ACAD
 70
     0
  0
APPID
  2
ACADANNOTATIVE
 70
     0
  0
APPID
  2
REVIT
 70
     0
  0
APPID
  2
ACAD_NAV_VCDISPLAY
 70
     0
  0
APPID
  2
ACAD_MLEADERVER
 70
     0
  0
ENDTAB
  0
TABLE
  2
DIMSTYLE
 70
     3
  0
DIMSTYLE
  2
STANDARD
 70
     0
  3

  4

  5

  6

  7

 40
1.0
 41
0.18
 42
0.0625
 43
0.38
 44
0.18
 45
0.0
 46
0.0
 47
0.0
 48
0.0
140
0.18
141
0.09
142
0.0
143
25.399999999999999
144
1.0
145
0.0
146
1.0
147
0.09
 71
     0
 72
     0
 73
     1
 74
     1
 75
     0
 76
     0
 77
     0
 78
     0
170
     0
171
     2
172
     0
173
     0
174
     0
175
     0
176
     0
177
     0
178
     0
  0
DIMSTYLE
  2
LINEAR
 70
     0
  3
<>
  4

  5

  6
OBLIQUE
  7
OBLIQUE
 40
304.80000000000001
 41
0.0065616797900262
 42
0.0065616797900262
 43
0.38
 44
0.0065616797900262
 45
0.01
 46
0.0
 47
0.0
 48
0.0
140
3.0
141
0.09
142
0.0
143
25.399999999999999
144
1.0
145
1.0
146
1.0
147
0.0065616797900262
 71
     0
 72
     0
 73
     0
 74
     0
 75
     0
 76
     0
 77
     1
 78
     0
170
     0
171
     2
172
     1
173
     1
174
     1
175
     0
176
     0
177
     0
178
     0
  0
ENDTAB
  0
ENDSEC
  0
SECTION
  2
BLOCKS
  0
BLOCK
  8
0
  2
$MODEL_SPACE
 70
     0
 10
0.0
 20
0.0
 30
0.0
  3
$MODEL_SPACE
  1

  0
ENDBLK
  5
72
  8
0
  0
BLOCK
 67
     1
  8
0
  2
$PAPER_SPACE
 70
     0
 10
0.0
 20
0.0
 30
0.0
  3
$PAPER_SPACE
  1

  0
ENDBLK
  5
76
 67
     1
  8
0
  0
BLOCK
  8
0
  2
_OBLIQUE
 70
     0
 10
0.0
 20
0.0
 30
0.0
  3
_OBLIQUE
  1

  0
LINE
  5
9F
  8
0
  6
BYBLOCK
 62
     0
 10
-0.5
 20
-0.5
 30
0.0
 11
0.5
 21
0.5
 31
0.0
  0
ENDBLK
  5
A1
  8
0
  0
BLOCK
  8
0
  2
DIMBLOCK1-REF__LEVEL
 70
     0
 10
0.0
 20
0.0
 30
0.0
  3
DIMBLOCK1-REF__LEVEL
  1

  0
LINE
  5
168
  8
0
 62
     0
 10
39.410650462365581
 20
13.0
 30
0.0
 11
37.996436899992432
 21
13.0
 31
0.0
  0
LINE
  5
169
  8
0
 62
     0
 10
39.410650462365581
 20
-0.000000000000004
 30
0.0
 11
37.996436899992432
 21
-0.0000000000000036
 31
0.0
  0
LINE
  5
16A
  8
0
 62
     0
 10
39.996436899992432
 20
13.0
 30
0.0
 11
39.996436899992432
 21
15.0
 31
0.0
  0
LINE
  5
16B
  8
0
 62
     0
 10
39.996436899992432
 20
-0.0000000000000041
 30
0.0
 11
39.996436899992432
 21
-2.000000000000004
 31
0.0
  0
LINE
  5
16C
  8
0
 62
     0
 10
39.996436899992432
 20
13.0
 30
0.0
 11
39.996436899992432
 21
-0.0000000000000041
 31
0.0
  0
INSERT
  5
16D
  8
0
 62
     0
  2
_OBLIQUE
 10
39.996436899992432
 20
13.0
 30
0.0
 41
2.0
 42
2.0
 43
2.0
 50
270.0
  0
INSERT
  5
16E
  8
0
 62
     0
  2
_OBLIQUE
 10
39.996436899992432
 20
-0.0000000000000041
 30
0.0
 41
2.0
 42
2.0
 43
2.0
 50
90.0
  0
INSERT
  5
16F
  8
0
  2
*U11
 10
0.0
 20
0.0
 30
0.0
  0
POINT
  5
170
  8
DEFPOINTS
 62
     0
 10
41.410650462365567
 20
13.0
 30
0.0
  0
POINT
  5
171
  8
DEFPOINTS
 62
     0
 10
41.410650462365567
 20
-0.0000000000000045
 30
0.0
  0
POINT
  5
172
  8
DEFPOINTS
 62
     0
 10
39.996436899992432
 20
-0.0000000000000041
 30
0.0
  0
ENDBLK
  5
9C
  8
0
  0
BLOCK
  8
0
  2
DIMBLOCK2-REF__LEVEL
 70
     0
 10
0.0
 20
0.0
 30
0.0
  3
DIMBLOCK2-REF__LEVEL
  1

  0
LINE
  5
15F
  8
0
 62
     0
 10
-15.45315898807052
 20
76.999999999999986
 30
0.0
 11
-16.867372550443829
 21
76.999999999999986
 31
0.0
  0
LINE
  5
160
  8
0
 62
     0
 10
-15.453158988070699
 20
-0.000000000000004
 30
0.0
 11
-16.86737255044385
 21
-0.0000000000000036
 31
0.0
  0
LINE
  5
161
  8
0
 62
     0
 10
-14.867372550443831
 20
76.999999999999986
 30
0.0
 11
-14.86737255044385
 21
-0.0000000000000042
 31
0.0
  0
INSERT
  5
162
  8
0
 62
     0
  2
_OBLIQUE
 10
-14.867372550443831
 20
76.999999999999986
 30
0.0
 41
2.0
 42
2.0
 43
2.0
 50
90.0
  0
INSERT
  5
163
  8
0
 62
     0
  2
_OBLIQUE
 10
-14.86737255044385
 20
-0.0000000000000042
 30
0.0
 41
2.0
 42
2.0
 43
2.0
 50
270.0
  0
INSERT
  5
164
  8
0
  2
*U10
 10
0.0
 20
0.0
 30
0.0
  0
POINT
  5
165
  8
DEFPOINTS
 62
     0
 10
-13.45315898807052
 20
76.999999999999986
 30
0.0
  0
POINT
  5
166
  8
DEFPOINTS
 62
     0
 10
-13.453158988070699
 20
-0.0000000000000046
 30
0.0
  0
POINT
  5
167
  8
DEFPOINTS
 62
     0
 10
-14.86737255044385
 20
-0.0000000000000042
 30
0.0
  0
ENDBLK
  5
BF
  8
0
  0
BLOCK
  8
0
  2
DIMBLOCK3-REF__LEVEL
 70
     0
 10
0.0
 20
0.0
 30
0.0
  3
DIMBLOCK3-REF__LEVEL
  1

  0
LINE
  5
154
  8
0
 62
     0
 10
5.0000000000000169
 20
-15.116601759234211
 30
0.0
 11
5.0000000000000169
 21
-16.530815321607331
 31
0.0
  0
LINE
  5
155
  8
0
 62
     0
 10
7.5000000000000187
 20
-15.116601759234211
 30
0.0
 11
7.5000000000000187
 21
-16.530815321607331
 31
0.0
  0
LINE
  5
156
  8
0
 62
     0
 10
5.0000000000000169
 20
-14.530815321607321
 30
0.0
 11
3.0000000000000169
 21
-14.530815321607321
 31
0.0
  0
LINE
  5
157
  8
0
 62
     0
 10
7.5000000000000187
 20
-14.530815321607321
 30
0.0
 11
9.5000000000000195
 21
-14.530815321607321
 31
0.0
  0
LINE
  5
158
  8
0
 62
     0
 10
5.0000000000000169
 20
-14.530815321607321
 30
0.0
 11
7.5000000000000187
 21
-14.530815321607321
 31
0.0
  0
INSERT
  5
159
  8
0
 62
     0
  2
_OBLIQUE
 10
5.0000000000000169
 20
-14.530815321607321
 30
0.0
 41
2.0
 42
2.0
 43
2.0
  0
INSERT
  5
15A
  8
0
 62
     0
  2
_OBLIQUE
 10
7.5000000000000187
 20
-14.530815321607321
 30
0.0
 41
2.0
 42
2.0
 43
2.0
 50
180.0
  0
INSERT
  5
15B
  8
0
  2
*U9
 10
0.0
 20
0.0
 30
0.0
  0
POINT
  5
15C
  8
DEFPOINTS
 62
     0
 10
5.0000000000000169
 20
-13.116601759234211
 30
0.0
  0
POINT
  5
15D
  8
DEFPOINTS
 62
     0
 10
7.5000000000000187
 20
-13.116601759234211
 30
0.0
  0
POINT
  5
15E
  8
DEFPOINTS
 62
     0
 10
7.5000000000000187
 20
-14.530815321607321
 30
0.0
  0
ENDBLK
  5
D9
  8
0
  0
BLOCK
  8
0
  2
DIMBLOCK4-REF__LEVEL
 70
     0
 10
0.0
 20
0.0
 30
0.0
  3
DIMBLOCK4-REF__LEVEL
  1

  0
LINE
  5
149
  8
0
 62
     0
 10
7.5000000000000187
 20
-15.116601759234211
 30
0.0
 11
7.5000000000000187
 21
-16.530815321607331
 31
0.0
  0
LINE
  5
14A
  8
0
 62
     0
 10
10.00000000000002
 20
-15.11660175923423
 30
0.0
 11
10.00000000000002
 21
-16.530815321607331
 31
0.0
  0
LINE
  5
14B
  8
0
 62
     0
 10
7.5000000000000187
 20
-14.530815321607321
 30
0.0
 11
5.5000000000000187
 21
-14.530815321607321
 31
0.0
  0
LINE
  5
14C
  8
0
 62
     0
 10
10.00000000000002
 20
-14.530815321607321
 30
0.0
 11
12.00000000000002
 21
-14.530815321607321
 31
0.0
  0
LINE
  5
14D
  8
0
 62
     0
 10
7.5000000000000187
 20
-14.530815321607321
 30
0.0
 11
10.00000000000002
 21
-14.530815321607321
 31
0.0
  0
INSERT
  5
14E
  8
0
 62
     0
  2
_OBLIQUE
 10
7.5000000000000187
 20
-14.530815321607321
 30
0.0
 41
2.0
 42
2.0
 43
2.0
  0
INSERT
  5
14F
  8
0
 62
     0
  2
_OBLIQUE
 10
10.00000000000002
 20
-14.530815321607321
 30
0.0
 41
2.0
 42
2.0
 43
2.0
 50
180.0
  0
INSERT
  5
150
  8
0
  2
*U8
 10
0.0
 20
0.0
 30
0.0
  0
POINT
  5
151
  8
DEFPOINTS
 62
     0
 10
7.5000000000000187
 20
-13.116601759234211
 30
0.0
  0
POINT
  5
152
  8
DEFPOINTS
 62
     0
 10
10.00000000000002
 20
-13.11660175923423
 30
0.0
  0
POINT
  5
153
  8
DEFPOINTS
 62
     0
 10
10.00000000000002
 20
-14.530815321607321
 30
0.0
  0
ENDBLK
  5
F5
  8
0
  0
BLOCK
  8
0
  2
DIMBLOCK5-REF__LEVEL
 70
     0
 10
0.0
 20
0.0
 30
0.0
  3
DIMBLOCK5-REF__LEVEL
  1

  0
LINE
  5
13E
  8
0
 62
     0
 10
-0.0000000000000001
 20
-26.79338408959557
 30
0.0
 11
-0.0000000000000002
 21
-28.207597651968669
 31
0.0
  0
LINE
  5
13F
  8
0
 62
     0
 10
4.9999999999999991
 20
-26.79338408959557
 30
0.0
 11
4.9999999999999991
 21
-28.207597651968669
 31
0.0
  0
LINE
  5
140
  8
0
 62
     0
 10
-0.0000000000000001
 20
-26.207597651968669
 30
0.0
 11
-2.0
 21
-26.207597651968669
 31
0.0
  0
LINE
  5
141
  8
0
 62
     0
 10
4.9999999999999991
 20
-26.207597651968669
 30
0.0
 11
7.0
 21
-26.207597651968669
 31
0.0
  0
LINE
  5
142
  8
0
 62
     0
 10
-0.0000000000000001
 20
-26.207597651968669
 30
0.0
 11
4.9999999999999991
 21
-26.207597651968669
 31
0.0
  0
INSERT
  5
143
  8
0
 62
     0
  2
_OBLIQUE
 10
-0.0000000000000001
 20
-26.207597651968669
 30
0.0
 41
2.0
 42
2.0
 43
2.0
  0
INSERT
  5
144
  8
0
 62
     0
  2
_OBLIQUE
 10
4.9999999999999991
 20
-26.207597651968669
 30
0.0
 41
2.0
 42
2.0
 43
2.0
 50
180.0
  0
INSERT
  5
145
  8
0
  2
*U7
 10
0.0
 20
0.0
 30
0.0
  0
POINT
  5
146
  8
DEFPOINTS
 62
     0
 10
0.0
 20
-24.79338408959558
 30
0.0
  0
POINT
  5
147
  8
DEFPOINTS
 62
     0
 10
4.9999999999999991
 20
-24.79338408959558
 30
0.0
  0
POINT
  5
148
  8
DEFPOINTS
 62
     0
 10
4.9999999999999991
 20
-26.207597651968669
 30
0.0
  0
ENDBLK
  5
111
  8
0
  0
BLOCK
  8
0
  2
*U7
 70
     1
 10
0.0
 20
0.0
 30
0.0
  3
*U7
  1

  0
TEXT
  5
220
  8
0
 62
     0
 10
-1.4982022653192939
 20
-24.151242422454992
 30
0.0
 40
2.9505988023952101
  1
5.00
  7
ARIAL
  0
ENDBLK
  5
222
  8
0
  0
BLOCK
  8
0
  2
*U8
 70
     1
 10
0.0
 20
0.0
 30
0.0
  3
*U8
  1

  0
TEXT
  5
224
  8
0
 62
     0
 10
4.7769563192850519
 20
-12.47446009209364
 30
0.0
 40
2.9505988023952101
  1
2.50
  7
ARIAL
  0
ENDBLK
  5
226
  8
0
  0
BLOCK
  8
0
  2
*U9
 70
     1
 10
0.0
 20
0.0
 30
0.0
  3
*U9
  1

  0
TEXT
  5
228
  8
0
 62
     0
 10
2.2769563192850488
 20
-12.47446009209364
 30
0.0
 40
2.9505988023952101
  1
2.50
  7
ARIAL
  0
ENDBLK
  5
22A
  8
0
  0
BLOCK
  8
0
  2
*U10
 70
     1
 10
0.0
 20
0.0
 30
0.0
  3
*U10
  1

  0
TEXT
  5
22C
  8
0
 62
     0
 10
-16.923727779957531
 20
33.343496499497583
 30
0.0
 40
2.9505988023952101
  1
77.00
 50
90.0
  7
ARIAL
  0
ENDBLK
  5
22E
  8
0
  0
BLOCK
  8
0
  2
*U11
 70
     1
 10
0.0
 20
0.0
 30
0.0
  3
*U11
  1

  0
TEXT
  5
230
  8
0
 62
     0
 10
37.938068983710401
 20
1.216697233091798
 30
0.0
 40
2.9505988023952101
  1
13.00
 50
90.0
  7
ARIAL
  0
ENDBLK
  5
232
  8
0
  0
ENDSEC
  0
SECTION
  2
ENTITIES
  0
LINE
  5
88
  8
0
 10
5.0000000000000417
 20
0.0000000000000081
 30
0.0
 11
10.000000000000041
 21
-0.0000000000000083
 31
0.0
1001
REVIT
1002
{
1070
     1
1000
235542
1002
}
1002
{
1070
     2
1000
-2002000
1002
}
1002
{
1070
     3
1000
206785
1002
}
  0
LINE
  5
89
  8
0
 10
-0.0000000000000162
 20
76.999999999999943
 30
0.0
 11
-0.0000000000000162
 21
-0.0000000000000169
 31
0.0
1001
REVIT
1002
{
1070
     1
1000
235529
1002
}
1002
{
1070
     2
1000
-2002000
1002
}
1002
{
1070
     3
1000
206783
1002
}
  0
LINE
  5
8A
  8
0
 10
-0.0000000000000159
 20
-0.0000000000000088
 30
0.0
 11
5.0000000000000417
 21
-0.0000000000000252
 31
0.0
1001
REVIT
1002
{
1070
     1
1000
235530
1002
}
1002
{
1070
     2
1000
-2002000
1002
}
1002
{
1070
     3
1000
206783
1002
}
  0
LINE
  5
8B
  8
0
 10
20.000000000000028
 20
0.0
 30
0.0
 11
20.00000000000005
 21
13.00000000000006
 31
0.0
1001
REVIT
1002
{
1070
     1
1000
235534
1002
}
1002
{
1070
     2
1000
-2002000
1002
}
1002
{
1070
     3
1000
206783
1002
}
  0
LINE
  5
8C
  8
0
 10
10.000000000000041
 20
0.0
 30
0.0
 11
20.000000000000028
 21
0.0
 31
0.0
1001
REVIT
1002
{
1070
     1
1000
235541
1002
}
1002
{
1070
     2
1000
-2002000
1002
}
1002
{
1070
     3
1000
206783
1002
}
  0
ENDSEC
  0
EOF
