  0
SECTION
  2
HEADER
  9
$ACADVER
  1
AC1009
  9
$INSBASE
 10
0.0
 20
0.0
 30
0.0
  9
$EXTMIN
 10
-22.055983379440139
 20
-47.534361546608658
 30
0.0
  9
$EXTMAX
 10
35.355339059327306
 20
101.0
 30
0.0
  9
$LIMMIN
 10
0.0
 20
0.0
  9
$LIMMAX
 10
12.0
 20
9.0
  9
$ORTHOMODE
 70
     0
  9
$REGENMODE
 70
     1
  9
$FILLMODE
 70
     1
  9
$QTEXTMODE
 70
     0
  9
$MIRRTEXT
 70
     0
  9
$DRAGMODE
 70
     2
  9
$LTSCALE
 40
1.0
  9
$OSMODE
 70
   127
  9
$ATTMODE
 70
     1
  9
$TEXTSIZE
 40
0.2
  9
$TRACEWID
 40
0.05
  9
$TEXTSTYLE
  7
STANDARD
  9
$CLAYER
  8
0
  9
$CELTYPE
  6
BYLAYER
  9
$CECOLOR
 62
   256
  9
$DIMSCALE
 40
1.0
  9
$DIMASZ
 40
0.18
  9
$DIMEXO
 40
0.0625
  9
$DIMDLI
 40
0.38
  9
$DIMRND
 40
0.0
  9
$DIMDLE
 40
0.0
  9
$DIMEXE
 40
0.18
  9
$DIMTP
 40
0.0
  9
$DIMTM
 40
0.0
  9
$DIMTXT
 40
0.18
  9
$DIMCEN
 40
0.09
  9
$DIMTSZ
 40
0.0
  9
$DIMTOL
 70
     0
  9
$DIMLIM
 70
     0
  9
$DIMTIH
 70
     1
  9
$DIMTOH
 70
     1
  9
$DIMSE1
 70
     0
  9
$DIMSE2
 70
     0
  9
$DIMTAD
 70
     0
  9
$DIMZIN
 70
     0
  9
$DIMBLK
  1

  9
$DIMASO
 70
     1
  9
$DIMSHO
 70
     1
  9
$DIMPOST
  1

  9
$DIMAPOST
  1

  9
$DIMALT
 70
     0
  9
$DIMALTD
 70
     2
  9
$DIMALTF
 40
25.399999999999999
  9
$DIMLFAC
 40
1.0
  9
$DIMTOFL
 70
     0
  9
$DIMTVP
 40
0.0
  9
$DIMTIX
 70
     0
  9
$DIMSOXD
 70
     0
  9
$DIMSAH
 70
     0
  9
$DIMBLK1
  1

  9
$DIMBLK2
  1

  9
$DIMSTYLE
  2
STANDARD
  9
$DIMCLRD
 70
     0
  9
$DIMCLRE
 70
     0
  9
$DIMCLRT
 70
     0
  9
$DIMTFAC
 40
1.0
  9
$DIMGAP
 40
0.09
  9
$LUNITS
 70
     2
  9
$LUPREC
 70
     4
  9
$SKETCHINC
 40
0.1
  9
$FILLETRAD
 40
0.0
  9
$AUNITS
 70
     0
  9
$AUPREC
 70
     0
  9
$MENU
  1
.
  9
$ELEVATION
 40
0.0
  9
$PELEVATION
 40
0.0
  9
$THICKNESS
 40
0.0
  9
$LIMCHECK
 70
     0
  9
$BLIPMODE
 70
     0
  9
$CHAMFERA
 40
0.0
  9
$CHAMFERB
 40
0.0
  9
$SKPOLY
 70
     0
  9
$TDCREATE
 40
2457375.5574726858
  9
$TDUPDATE
 40
2457378.994046459
  9
$TDINDWG
 40
0.0001179398
  9
$TDUSRTIMER
 40
0.0001179398
  9
$USRTIMER
 70
     1
  9
$ANGBASE
 50
0.0
  9
$ANGDIR
 70
     0
  9
$PDMODE
 70
     0
  9
$PDSIZE
 40
0.0
  9
$PLINEWID
 40
0.0
  9
$COORDS
 70
     2
  9
$SPLFRAME
 70
     0
  9
$SPLINETYPE
 70
     6
  9
$SPLINESEGS
 70
     8
  9
$ATTDIA
 70
     0
  9
$ATTREQ
 70
     0
  9
$HANDLING
 70
     1
  9
$HANDSEED
  5
1D7
  9
$SURFTAB1
 70
     6
  9
$SURFTAB2
 70
     6
  9
$SURFTYPE
 70
     6
  9
$SURFU
 70
     6
  9
$SURFV
 70
     6
  9
$UCSNAME
  2

  9
$UCSORG
 10
0.0
 20
0.0
 30
0.0
  9
$UCSXDIR
 10
1.0
 20
0.0
 30
0.0
  9
$UCSYDIR
 10
0.0
 20
1.0
 30
0.0
  9
$PUCSNAME
  2

  9
$PUCSORG
 10
0.0
 20
0.0
 30
0.0
  9
$PUCSXDIR
 10
1.0
 20
0.0
 30
0.0
  9
$PUCSYDIR
 10
0.0
 20
1.0
 30
0.0
  9
$USERI1
 70
     0
  9
$USERI2
 70
     0
  9
$USERI3
 70
     0
  9
$USERI4
 70
     0
  9
$USERI5
 70
     0
  9
$USERR1
 40
0.0
  9
$USERR2
 40
0.0
  9
$USERR3
 40
0.0
  9
$USERR4
 40
0.0
  9
$USERR5
 40
0.0
  9
$WORLDVIEW
 70
     1
  9
$SHADEDGE
 70
     3
  9
$SHADEDIF
 70
    70
  9
$TILEMODE
 70
     1
  9
$MAXACTVP
 70
    64
  9
$PLIMCHECK
 70
     0
  9
$PEXTMIN
 10
0.0
 20
0.0
 30
0.0
  9
$PEXTMAX
 10
0.0
 20
0.0
 30
0.0
  9
$PLIMMIN
 10
0.0
 20
0.0
  9
$PLIMMAX
 10
12.0
 20
9.0
  9
$UNITMODE
 70
     0
  9
$VISRETAIN
 70
     1
  9
$PLINEGEN
 70
     0
  9
$PSLTSCALE
 70
     1
  0
ENDSEC
  0
SECTION
  2
TABLES
  0
TABLE
  2
VPORT
 70
     1
  0
VPORT
  2
*ACTIVE
 70
     0
 10
0.0
 20
0.0
 11
1.0
 21
1.0
 12
143.715253681664
 22
26.732819226695678
 13
0.0
 23
0.0
 14
1.0
 24
1.0
 15
0.0
 25
0.0
 16
0.0
 26
0.0
 36
1.0
 17
0.0
 27
0.0
 37
0.0
 40
123.269182853396
 41
1.7244755244755241
 42
50.0
 43
0.0
 44
0.0
 50
0.0
 51
0.0
 71
     0
 72
  1000
 73
     1
 74
     3
 75
     0
 76
     0
 77
     0
 78
     0
  0
ENDTAB
  0
TABLE
  2
LTYPE
 70
     1
  0
LTYPE
  2
CONTINUOUS
 70
     0
  3
Solid line
 72
    65
 73
     0
 40
0.0
  0
ENDTAB
  0
TABLE
  2
LAYER
 70
     5
  0
LAYER
  2
0
 70
     0
 62
     7
  6
CONTINUOUS
  0
LAYER
  2
DEFPOINTS
 70
     0
 62
     7
  6
CONTINUOUS
  0
ENDTAB
  0
TABLE
  2
STYLE
 70
     3
  0
STYLE
  2
STANDARD
 70
     0
 40
0.0
 41
1.0
 50
0.0
 71
     0
 42
0.2
  3
txt
  4

  0
STYLE
  2
ARIAL
 70
     0
 40
2.9505988023952101
 41
1.0
 50
0.0
 71
     0
 42
0.2
  3
txt
  4

  0
ENDTAB
  0
TABLE
  2
VIEW
 70
     0
  0
ENDTAB
  0
TABLE
  2
UCS
 70
     0
  0
ENDTAB
  0
TABLE
  2
APPID
 70
     5
  0
APPID
  2
ACAD
 70
     0
  0
APPID
  2
ACADANNOTATIVE
 70
     0
  0
APPID
  2
REVIT
 70
     0
  0
APPID
  2
ACAD_NAV_VCDISPLAY
 70
     0
  0
APPID
  2
ACAD_MLEADERVER
 70
     0
  0
ENDTAB
  0
TABLE
  2
DIMSTYLE
 70
     4
  0
DIMSTYLE
  2
STANDARD
 70
     0
  3

  4

  5

  6

  7

 40
1.0
 41
0.18
 42
0.0625
 43
0.38
 44
0.18
 45
0.0
 46
0.0
 47
0.0
 48
0.0
140
0.18
141
0.09
142
0.0
143
25.399999999999999
144
1.0
145
0.0
146
1.0
147
0.09
 71
     0
 72
     0
 73
     1
 74
     1
 75
     0
 76
     0
 77
     0
 78
     0
170
     0
171
     2
172
     0
173
     0
174
     0
175
     0
176
     0
177
     0
178
     0
  0
DIMSTYLE
  2
LINEAR
 70
     0
  3
<>
  4

  5

  6
OBLIQUE
  7
OBLIQUE
 40
304.80000000000001
 41
0.0065616797900262
 42
0.0065616797900262
 43
0.38
 44
0.0065616797900262
 45
0.01
 46
0.0
 47
0.0
 48
0.0
140
3.0
141
0.09
142
0.0
143
25.399999999999999
144
1.0
145
1.0
146
1.0
147
0.0065616797900262
 71
     0
 72
     0
 73
     0
 74
     0
 75
     0
 76
     0
 77
     1
 78
     0
170
     0
171
     2
172
     1
173
     1
174
     1
175
     0
176
     0
177
     0
178
     0
  0
DIMSTYLE
  2
ANGULAR
 70
     0
  3
<>
  4

  5

  6
OBLIQUE
  7
OBLIQUE
 40
304.80000000000001
 41
0.0065616797900262
 42
0.0065616797900262
 43
0.38
 44
0.0065616797900262
 45
0.0
 46
0.0
 47
0.0
 48
0.0
140
3.0
141
0.09
142
0.0
143
25.399999999999999
144
1.0
145
1.0
146
1.0
147
0.0065616797900262
 71
     0
 72
     0
 73
     0
 74
     0
 75
     0
 76
     0
 77
     1
 78
     0
170
     0
171
     2
172
     1
173
     1
174
     1
175
     0
176
     0
177
     0
178
     0
  0
ENDTAB
  0
ENDSEC
  0
SECTION
  2
BLOCKS
  0
BLOCK
  8
0
  2
$MODEL_SPACE
 70
     0
 10
0.0
 20
0.0
 30
0.0
  3
$MODEL_SPACE
  1

  0
ENDBLK
  5
72
  8
0
  0
BLOCK
 67
     1
  8
0
  2
$PAPER_SPACE
 70
     0
 10
0.0
 20
0.0
 30
0.0
  3
$PAPER_SPACE
  1

  0
ENDBLK
  5
76
 67
     1
  8
0
  0
BLOCK
  8
0
  2
_OBLIQUE
 70
     0
 10
0.0
 20
0.0
 30
0.0
  3
_OBLIQUE
  1

  0
LINE
  5
9C
  8
0
  6
BYBLOCK
 62
     0
 10
-0.5
 20
-0.5
 30
0.0
 11
0.5
 21
0.5
 31
0.0
  0
ENDBLK
  5
9E
  8
0
  0
BLOCK
  8
0
  2
DIMBLOCK1-REF__LEVEL
 70
     0
 10
0.0
 20
0.0
 30
0.0
  3
DIMBLOCK1-REF__LEVEL
  1

  0
LINE
  5
116
  8
0
 62
     0
 10
-16.033325471630359
 20
100.0
 30
0.0
 11
-17.44753903400375
 21
100.0
 31
0.0
  0
LINE
  5
117
  8
0
 62
     0
 10
-16.03332547163058
 20
-0.000000000000004
 30
0.0
 11
-17.447539034003771
 21
-0.0000000000000036
 31
0.0
  0
LINE
  5
118
  8
0
 62
     0
 10
-15.44753903400375
 20
100.0
 30
0.0
 11
-15.447539034003769
 21
-0.0000000000000042
 31
0.0
  0
INSERT
  5
119
  8
0
 62
     0
  2
_OBLIQUE
 10
-15.44753903400375
 20
100.0
 30
0.0
 41
2.0
 42
2.0
 43
2.0
 50
90.0
  0
INSERT
  5
11A
  8
0
 62
     0
  2
_OBLIQUE
 10
-15.447539034003769
 20
-0.0000000000000042
 30
0.0
 41
2.0
 42
2.0
 43
2.0
 50
270.0
  0
INSERT
  5
11B
  8
0
  2
*U7
 10
0.0
 20
0.0
 30
0.0
  0
POINT
  5
11C
  8
DEFPOINTS
 62
     0
 10
-14.033325471630359
 20
100.0
 30
0.0
  0
POINT
  5
11D
  8
DEFPOINTS
 62
     0
 10
-14.03332547163058
 20
-0.0000000000000046
 30
0.0
  0
POINT
  5
11E
  8
DEFPOINTS
 62
     0
 10
-15.447539034003769
 20
-0.0000000000000042
 30
0.0
  0
ENDBLK
  5
99
  8
0
  0
BLOCK
  8
0
  2
DIMBLOCK2-REF__LEVEL
 70
     0
 10
0.0
 20
0.0
 30
0.0
  3
DIMBLOCK2-REF__LEVEL
  1

  0
LINE
  5
10C
  8
0
 62
     0
 10
15.862525822071911
 20
-15.86252582207204
 30
0.0
 11
13.0340986973257
 21
-13.03409869732581
 31
0.0
  0
LINE
  5
10D
  8
0
 62
     0
 10
0.0
 20
22.432999151067541
 30
0.0
 11
-0.0000000000000009
 21
18.43299915106758
 31
0.0
  0
ARC
  5
10E
  8
0
 62
     0
 10
0.0
 20
0.0
 30
0.0
 40
20.43299915106757
 50
314.99999999999977
 51
90.0
  0
INSERT
  5
10F
  8
0
 62
     0
  2
_OBLIQUE
 10
14.44831225969879
 20
-14.448312259698911
 30
0.0
 41
2.0
 42
2.0
 43
2.0
 50
224.9999999999998
  0
INSERT
  5
110
  8
0
 62
     0
  2
_OBLIQUE
 10
0.0000000000000053
 20
20.43299915106758
 30
0.0
 41
2.0
 42
2.0
 43
2.0
 50
180.0
  0
INSERT
  5
111
  8
0
  2
*U6
 10
0.0
 20
0.0
 30
0.0
  0
POINT
  5
112
  8
DEFPOINTS
 62
     0
 10
0.0
 20
0.0
 30
0.0
  0
POINT
  5
113
  8
DEFPOINTS
 62
     0
 10
17.276739384445001
 20
-17.27673938444515
 30
0.0
  0
POINT
  5
114
  8
DEFPOINTS
 62
     0
 10
0.0
 20
24.432999151067541
 30
0.0
  0
POINT
  5
115
  8
DEFPOINTS
 62
     0
 10
20.43299915106757
 20
-0.0000000000000586
 30
0.0
  0
ENDBLK
  5
BC
  8
0
  0
BLOCK
  8
0
  2
DIMBLOCK3-REF__LEVEL
 70
     0
 10
0.0
 20
0.0
 30
0.0
  3
DIMBLOCK3-REF__LEVEL
  1

  0
LINE
  5
103
  8
0
 62
     0
 10
-1.4142135623731591
 20
-1.4142135623731169
 30
0.0
 11
-12.179022487281371
 21
-12.17902248728134
 31
0.0
  0
LINE
  5
104
  8
0
 62
     0
 10
33.941125496954221
 20
-36.769552621700448
 30
0.0
 11
23.176316572046009
 21
-47.534361546608658
 31
0.0
  0
LINE
  5
105
  8
0
 62
     0
 10
-10.76480892490828
 20
-10.76480892490825
 30
0.0
 11
24.590530134419112
 21
-46.120147984235572
 31
0.0
  0
INSERT
  5
106
  8
0
 62
     0
  2
_OBLIQUE
 10
-10.76480892490828
 20
-10.76480892490825
 30
0.0
 41
2.0
 42
2.0
 43
2.0
 50
135.0
  0
INSERT
  5
107
  8
0
 62
     0
  2
_OBLIQUE
 10
24.590530134419112
 20
-46.120147984235572
 30
0.0
 41
2.0
 42
2.0
 43
2.0
 50
315.00000000000011
  0
INSERT
  5
108
  8
0
  2
*U5
 10
0.0
 20
0.0
 30
0.0
  0
POINT
  5
109
  8
DEFPOINTS
 62
     0
 10
-0.0000000000000656
 20
-0.0000000000000211
 30
0.0
  0
POINT
  5
10A
  8
DEFPOINTS
 62
     0
 10
35.355339059327306
 20
-35.355339059327349
 30
0.0
  0
POINT
  5
10B
  8
DEFPOINTS
 62
     0
 10
24.590530134419112
 20
-46.120147984235572
 30
0.0
  0
ENDBLK
  5
D8
  8
0
  0
BLOCK
  8
0
  2
*U5
 70
     1
 10
0.0
 20
0.0
 30
0.0
  3
*U5
  1

  0
TEXT
  5
1CC
  8
0
 62
     0
 10
4.7292638464293484
 20
-23.35075624161076
 30
0.0
 40
2.9505988023952101
  1
50.00
 50
315.00000000000011
  7
ARIAL
  0
ENDBLK
  5
1CE
  8
0
  0
BLOCK
  8
0
  2
*U6
 70
     1
 10
0.0
 20
0.0
 30
0.0
  3
*U6
  1

  0
TEXT
  5
1D0
  8
0
 62
     0
 10
18.018068249103351
 20
15.27330974452908
 30
0.0
 40
2.9505988023952101
  1
135.00°
 50
292.49999999999989
  7
ARIAL
  0
ENDBLK
  5
1D2
  8
0
  0
BLOCK
  8
0
  2
*U7
 70
     1
 10
0.0
 20
0.0
 30
0.0
  3
*U7
  1

  0
TEXT
  5
1D4
  8
0
 62
     0
 10
-17.503894263517459
 20
43.570472118518758
 30
0.0
 40
2.9505988023952101
  1
100.00
 50
90.0
  7
ARIAL
  0
ENDBLK
  5
1D6
  8
0
  0
ENDSEC
  0
SECTION
  2
ENTITIES
  0
LINE
  5
88
  8
0
 10
0.0000000000000853
 20
99.999999999999986
 30
0.0
 11
-0.0000000000000766
 21
-0.0000000000000085
 31
0.0
1001
REVIT
1002
{
1070
     1
1000
233205
1002
}
1002
{
1070
     2
1000
-2002000
1002
}
1002
{
1070
     3
1000
206783
1002
}
  0
LINE
  5
89
  8
0
 10
-0.0000000000000646
 20
-0.0000000000000219
 30
0.0
 11
35.355339059327306
 21
-35.355339059327349
 31
0.0
1001
REVIT
1002
{
1070
     1
1000
233210
1002
}
1002
{
1070
     2
1000
-2002000
1002
}
1002
{
1070
     3
1000
206783
1002
}
  0
ENDSEC
  0
EOF
