  0
SECTION
  2
HEADER
  9
$ACADVER
  1
AC1009
  9
$INSBASE
 10
0.0
 20
0.0
 30
0.0
  9
$EXTMIN
 10
-374.99961451020368
 20
-368.26157701604438
 30
0.0
  9
$EXTMAX
 10
113.2330016695111
 20
618.92158800493689
 30
0.0
  9
$LIMMIN
 10
0.0
 20
0.0
  9
$LIMMAX
 10
12.0
 20
9.0
  9
$ORTHOMODE
 70
     0
  9
$REGENMODE
 70
     1
  9
$FILLMODE
 70
     1
  9
$QTEXTMODE
 70
     0
  9
$MIRRTEXT
 70
     0
  9
$DRAGMODE
 70
     2
  9
$LTSCALE
 40
1.0
  9
$OSMODE
 70
   127
  9
$ATTMODE
 70
     1
  9
$TEXTSIZE
 40
0.2
  9
$TRACEWID
 40
0.05
  9
$TEXTSTYLE
  7
STANDARD
  9
$CLAYER
  8
0
  9
$CELTYPE
  6
BYLAYER
  9
$CECOLOR
 62
   256
  9
$DIMSCALE
 40
1.0
  9
$DIMASZ
 40
0.18
  9
$DIMEXO
 40
0.0625
  9
$DIMDLI
 40
0.38
  9
$DIMRND
 40
0.0
  9
$DIMDLE
 40
0.0
  9
$DIMEXE
 40
0.18
  9
$DIMTP
 40
0.0
  9
$DIMTM
 40
0.0
  9
$DIMTXT
 40
0.18
  9
$DIMCEN
 40
0.09
  9
$DIMTSZ
 40
0.0
  9
$DIMTOL
 70
     0
  9
$DIMLIM
 70
     0
  9
$DIMTIH
 70
     1
  9
$DIMTOH
 70
     1
  9
$DIMSE1
 70
     0
  9
$DIMSE2
 70
     0
  9
$DIMTAD
 70
     0
  9
$DIMZIN
 70
     0
  9
$DIMBLK
  1

  9
$DIMASO
 70
     1
  9
$DIMSHO
 70
     1
  9
$DIMPOST
  1

  9
$DIMAPOST
  1

  9
$DIMALT
 70
     0
  9
$DIMALTD
 70
     2
  9
$DIMALTF
 40
25.399999999999999
  9
$DIMLFAC
 40
1.0
  9
$DIMTOFL
 70
     0
  9
$DIMTVP
 40
0.0
  9
$DIMTIX
 70
     0
  9
$DIMSOXD
 70
     0
  9
$DIMSAH
 70
     0
  9
$DIMBLK1
  1

  9
$DIMBLK2
  1

  9
$DIMSTYLE
  2
STANDARD
  9
$DIMCLRD
 70
     0
  9
$DIMCLRE
 70
     0
  9
$DIMCLRT
 70
     0
  9
$DIMTFAC
 40
1.0
  9
$DIMGAP
 40
0.09
  9
$LUNITS
 70
     2
  9
$LUPREC
 70
     4
  9
$SKETCHINC
 40
0.1
  9
$FILLETRAD
 40
0.0
  9
$AUNITS
 70
     0
  9
$AUPREC
 70
     0
  9
$MENU
  1
.
  9
$ELEVATION
 40
0.0
  9
$PELEVATION
 40
0.0
  9
$THICKNESS
 40
0.0
  9
$LIMCHECK
 70
     0
  9
$BLIPMODE
 70
     0
  9
$CHAMFERA
 40
0.0
  9
$CHAMFERB
 40
0.0
  9
$SKPOLY
 70
     0
  9
$TDCREATE
 40
2457375.558750255
  9
$TDUPDATE
 40
2457378.9918426741
  9
$TDINDWG
 40
0.0001125347
  9
$TDUSRTIMER
 40
0.0001125347
  9
$USRTIMER
 70
     1
  9
$ANGBASE
 50
0.0
  9
$ANGDIR
 70
     0
  9
$PDMODE
 70
     0
  9
$PDSIZE
 40
0.0
  9
$PLINEWID
 40
0.0
  9
$COORDS
 70
     2
  9
$SPLFRAME
 70
     0
  9
$SPLINETYPE
 70
     6
  9
$SPLINESEGS
 70
     8
  9
$ATTDIA
 70
     0
  9
$ATTREQ
 70
     0
  9
$HANDLING
 70
     1
  9
$HANDSEED
  5
2F3
  9
$SURFTAB1
 70
     6
  9
$SURFTAB2
 70
     6
  9
$SURFTYPE
 70
     6
  9
$SURFU
 70
     6
  9
$SURFV
 70
     6
  9
$UCSNAME
  2

  9
$UCSORG
 10
0.0
 20
0.0
 30
0.0
  9
$UCSXDIR
 10
1.0
 20
0.0
 30
0.0
  9
$UCSYDIR
 10
0.0
 20
1.0
 30
0.0
  9
$PUCSNAME
  2

  9
$PUCSORG
 10
0.0
 20
0.0
 30
0.0
  9
$PUCSXDIR
 10
1.0
 20
0.0
 30
0.0
  9
$PUCSYDIR
 10
0.0
 20
1.0
 30
0.0
  9
$USERI1
 70
     0
  9
$USERI2
 70
     0
  9
$USERI3
 70
     0
  9
$USERI4
 70
     0
  9
$USERI5
 70
     0
  9
$USERR1
 40
0.0
  9
$USERR2
 40
0.0
  9
$USERR3
 40
0.0
  9
$USERR4
 40
0.0
  9
$USERR5
 40
0.0
  9
$WORLDVIEW
 70
     1
  9
$SHADEDGE
 70
     3
  9
$SHADEDIF
 70
    70
  9
$TILEMODE
 70
     1
  9
$MAXACTVP
 70
    64
  9
$PLIMCHECK
 70
     0
  9
$PEXTMIN
 10
0.0
 20
0.0
 30
0.0
  9
$PEXTMAX
 10
0.0
 20
0.0
 30
0.0
  9
$PLIMMIN
 10
0.0
 20
0.0
  9
$PLIMMAX
 10
12.0
 20
9.0
  9
$UNITMODE
 70
     0
  9
$VISRETAIN
 70
     1
  9
$PLINEGEN
 70
     0
  9
$PSLTSCALE
 70
     1
  0
ENDSEC
  0
SECTION
  2
TABLES
  0
TABLE
  2
VPORT
 70
     1
  0
VPORT
  2
*ACTIVE
 70
     0
 10
0.0
 20
0.0
 11
1.0
 21
1.0
 12
721.5524510438446
 22
125.3300054944462
 13
0.0
 23
0.0
 14
1.0
 24
1.0
 15
0.0
 25
0.0
 16
0.0
 26
0.0
 36
1.0
 17
0.0
 27
0.0
 37
0.0
 40
819.26673943780054
 41
1.7244755244755241
 42
50.0
 43
0.0
 44
0.0
 50
0.0
 51
0.0
 71
     0
 72
  1000
 73
     1
 74
     3
 75
     0
 76
     0
 77
     0
 78
     0
  0
ENDTAB
  0
TABLE
  2
LTYPE
 70
     2
  0
LTYPE
  2
CONTINUOUS
 70
     0
  3
Solid line
 72
    65
 73
     0
 40
0.0
  0
LTYPE
  2
DASH
 70
     0
  3

 72
    65
 73
     2
 40
6.3499999999999988
 49
3.1749999999999989
 49
-3.1749999999999989
  0
ENDTAB
  0
TABLE
  2
LAYER
 70
     6
  0
LAYER
  2
0
 70
     0
 62
     7
  6
CONTINUOUS
  0
LAYER
  2
DEFPOINTS
 70
     0
 62
     7
  6
CONTINUOUS
  0
ENDTAB
  0
TABLE
  2
STYLE
 70
     3
  0
STYLE
  2
STANDARD
 70
     0
 40
0.0
 41
1.0
 50
0.0
 71
     0
 42
0.2
  3
txt
  4

  0
STYLE
  2
ARIAL
 70
     0
 40
2.9505988023952101
 41
1.0
 50
0.0
 71
     0
 42
0.2
  3
txt
  4

  0
ENDTAB
  0
TABLE
  2
VIEW
 70
     0
  0
ENDTAB
  0
TABLE
  2
UCS
 70
     0
  0
ENDTAB
  0
TABLE
  2
APPID
 70
     5
  0
APPID
  2
ACAD
 70
     0
  0
APPID
  2
ACADANNOTATIVE
 70
     0
  0
APPID
  2
REVIT
 70
     0
  0
APPID
  2
ACAD_NAV_VCDISPLAY
 70
     0
  0
APPID
  2
ACAD_MLEADERVER
 70
     0
  0
ENDTAB
  0
TABLE
  2
DIMSTYLE
 70
     3
  0
DIMSTYLE
  2
STANDARD
 70
     0
  3

  4

  5

  6

  7

 40
1.0
 41
0.18
 42
0.0625
 43
0.38
 44
0.18
 45
0.0
 46
0.0
 47
0.0
 48
0.0
140
0.18
141
0.09
142
0.0
143
25.399999999999999
144
1.0
145
0.0
146
1.0
147
0.09
 71
     0
 72
     0
 73
     1
 74
     1
 75
     0
 76
     0
 77
     0
 78
     0
170
     0
171
     2
172
     0
173
     0
174
     0
175
     0
176
     0
177
     0
178
     0
  0
DIMSTYLE
  2
LINEAR
 70
     0
  3
<>
  4

  5

  6
OBLIQUE
  7
OBLIQUE
 40
304.80000000000001
 41
0.0065616797900262
 42
0.0065616797900262
 43
0.38
 44
0.0065616797900262
 45
0.01
 46
0.0
 47
0.0
 48
0.0
140
3.0
141
0.09
142
0.0
143
25.399999999999999
144
1.0
145
1.0
146
1.0
147
0.0065616797900262
 71
     0
 72
     0
 73
     0
 74
     0
 75
     0
 76
     0
 77
     1
 78
     0
170
     0
171
     2
172
     1
173
     1
174
     1
175
     0
176
     0
177
     0
178
     0
  0
ENDTAB
  0
ENDSEC
  0
SECTION
  2
BLOCKS
  0
BLOCK
  8
0
  2
$MODEL_SPACE
 70
     0
 10
0.0
 20
0.0
 30
0.0
  3
$MODEL_SPACE
  1

  0
ENDBLK
  5
72
  8
0
  0
BLOCK
 67
     1
  8
0
  2
$PAPER_SPACE
 70
     0
 10
0.0
 20
0.0
 30
0.0
  3
$PAPER_SPACE
  1

  0
ENDBLK
  5
76
 67
     1
  8
0
  0
BLOCK
  8
0
  2
_OBLIQUE
 70
     0
 10
0.0
 20
0.0
 30
0.0
  3
_OBLIQUE
  1

  0
LINE
  5
F6
  8
0
  6
BYBLOCK
 62
     0
 10
-0.5
 20
-0.5
 30
0.0
 11
0.5
 21
0.5
 31
0.0
  0
ENDBLK
  5
F8
  8
0
  0
BLOCK
  8
0
  2
DIMBLOCK1-REF__LEVEL
 70
     0
 10
0.0
 20
0.0
 30
0.0
  3
DIMBLOCK1-REF__LEVEL
  1

  0
LINE
  5
21E
  8
0
 62
     0
 10
68.000385489796273
 20
-335.0
 30
0.0
 11
113.2330016695111
 21
-335.0
 31
0.0
  0
LINE
  5
21F
  8
0
 62
     0
 10
111.8187881071381
 20
-9.9999999999999343
 30
0.0
 11
113.2330016695111
 21
-9.9999999999999343
 31
0.0
  0
LINE
  5
220
  8
0
 62
     0
 10
111.2330016695111
 20
-335.0
 30
0.0
 11
111.2330016695111
 21
-9.9999999999999343
 31
0.0
  0
INSERT
  5
221
  8
0
 62
     0
  2
_OBLIQUE
 10
111.2330016695111
 20
-335.0
 30
0.0
 41
2.0
 42
2.0
 43
2.0
 50
270.0
  0
INSERT
  5
222
  8
0
 62
     0
  2
_OBLIQUE
 10
111.2330016695111
 20
-9.9999999999999343
 30
0.0
 41
2.0
 42
2.0
 43
2.0
 50
90.0
  0
INSERT
  5
223
  8
0
  2
*U17
 10
0.0
 20
0.0
 30
0.0
  0
POINT
  5
224
  8
DEFPOINTS
 62
     0
 10
66.000385489796273
 20
-335.0
 30
0.0
  0
POINT
  5
225
  8
DEFPOINTS
 62
     0
 10
109.818788107138
 20
-9.9999999999999343
 30
0.0
  0
POINT
  5
226
  8
DEFPOINTS
 62
     0
 10
111.2330016695111
 20
-9.9999999999999343
 30
0.0
  0
ENDBLK
  5
F3
  8
0
  0
BLOCK
  8
0
  2
DIMBLOCK2-REF__LEVEL
 70
     0
 10
0.0
 20
0.0
 30
0.0
  3
DIMBLOCK2-REF__LEVEL
  1

  0
LINE
  5
215
  8
0
 62
     0
 10
111.8187881071381
 20
-9.9999999999999343
 30
0.0
 11
113.2330016695111
 21
-9.9999999999999343
 31
0.0
  0
LINE
  5
216
  8
0
 62
     0
 10
78.000385489796273
 20
40.000000000000107
 30
0.0
 11
113.2330016695111
 21
40.000000000000092
 31
0.0
  0
LINE
  5
217
  8
0
 62
     0
 10
111.2330016695111
 20
-9.9999999999999343
 30
0.0
 11
111.2330016695111
 21
40.000000000000099
 31
0.0
  0
INSERT
  5
218
  8
0
 62
     0
  2
_OBLIQUE
 10
111.2330016695111
 20
-9.9999999999999343
 30
0.0
 41
2.0
 42
2.0
 43
2.0
 50
270.0
  0
INSERT
  5
219
  8
0
 62
     0
  2
_OBLIQUE
 10
111.2330016695111
 20
40.000000000000099
 30
0.0
 41
2.0
 42
2.0
 43
2.0
 50
90.0
  0
INSERT
  5
21A
  8
0
  2
*U16
 10
0.0
 20
0.0
 30
0.0
  0
POINT
  5
21B
  8
DEFPOINTS
 62
     0
 10
109.818788107138
 20
-9.9999999999999343
 30
0.0
  0
POINT
  5
21C
  8
DEFPOINTS
 62
     0
 10
76.000385489796273
 20
40.000000000000107
 30
0.0
  0
POINT
  5
21D
  8
DEFPOINTS
 62
     0
 10
111.2330016695111
 20
40.000000000000099
 30
0.0
  0
ENDBLK
  5
114
  8
0
  0
BLOCK
  8
0
  2
DIMBLOCK3-REF__LEVEL
 70
     0
 10
0.0
 20
0.0
 30
0.0
  3
DIMBLOCK3-REF__LEVEL
  1

  0
LINE
  5
20C
  8
0
 62
     0
 10
-77.999614510203713
 20
40.000000000000107
 30
0.0
 11
-121.067007317792
 21
40.000000000000128
 31
0.0
  0
LINE
  5
20D
  8
0
 62
     0
 10
-67.999614510203742
 20
-334.99999999999977
 30
0.0
 11
-121.0670073177921
 21
-334.99999999999977
 31
0.0
  0
LINE
  5
20E
  8
0
 62
     0
 10
-119.067007317792
 20
40.000000000000128
 30
0.0
 11
-119.0670073177921
 21
-334.99999999999977
 31
0.0
  0
INSERT
  5
20F
  8
0
 62
     0
  2
_OBLIQUE
 10
-119.067007317792
 20
40.000000000000128
 30
0.0
 41
2.0
 42
2.0
 43
2.0
 50
90.0
  0
INSERT
  5
210
  8
0
 62
     0
  2
_OBLIQUE
 10
-119.0670073177921
 20
-334.99999999999977
 30
0.0
 41
2.0
 42
2.0
 43
2.0
 50
270.0
  0
INSERT
  5
211
  8
0
  2
*U15
 10
0.0
 20
0.0
 30
0.0
  0
POINT
  5
212
  8
DEFPOINTS
 62
     0
 10
-75.999614510203727
 20
40.000000000000107
 30
0.0
  0
POINT
  5
213
  8
DEFPOINTS
 62
     0
 10
-65.999614510203742
 20
-334.99999999999977
 30
0.0
  0
POINT
  5
214
  8
DEFPOINTS
 62
     0
 10
-119.0670073177921
 20
-334.99999999999977
 30
0.0
  0
ENDBLK
  5
12E
  8
0
  0
BLOCK
  8
0
  2
DIMBLOCK4-REF__LEVEL
 70
     0
 10
0.0
 20
0.0
 30
0.0
  3
DIMBLOCK4-REF__LEVEL
  1

  0
LINE
  5
203
  8
0
 62
     0
 10
-75.999614510203756
 20
42.000000000000107
 30
0.0
 11
-75.999614510203756
 21
99.573211967136857
 31
0.0
  0
LINE
  5
204
  8
0
 62
     0
 10
76.000385489796273
 20
42.000000000000107
 30
0.0
 11
76.000385489796273
 21
99.573211967136857
 31
0.0
  0
LINE
  5
205
  8
0
 62
     0
 10
-75.999614510203756
 20
97.573211967136857
 30
0.0
 11
76.000385489796273
 21
97.573211967136857
 31
0.0
  0
INSERT
  5
206
  8
0
 62
     0
  2
_OBLIQUE
 10
-75.999614510203756
 20
97.573211967136857
 30
0.0
 41
2.0
 42
2.0
 43
2.0
 50
180.0
  0
INSERT
  5
207
  8
0
 62
     0
  2
_OBLIQUE
 10
76.000385489796273
 20
97.573211967136857
 30
0.0
 41
2.0
 42
2.0
 43
2.0
  0
INSERT
  5
208
  8
0
  2
*U14
 10
0.0
 20
0.0
 30
0.0
  0
POINT
  5
209
  8
DEFPOINTS
 62
     0
 10
-75.999614510203756
 20
40.000000000000107
 30
0.0
  0
POINT
  5
20A
  8
DEFPOINTS
 62
     0
 10
76.000385489796273
 20
40.000000000000107
 30
0.0
  0
POINT
  5
20B
  8
DEFPOINTS
 62
     0
 10
76.000385489796273
 20
97.573211967136857
 30
0.0
  0
ENDBLK
  5
148
  8
0
  0
BLOCK
  8
0
  2
DIMBLOCK5-REF__LEVEL
 70
     0
 10
0.0
 20
0.0
 30
0.0
  3
DIMBLOCK5-REF__LEVEL
  1

  0
LINE
  5
1FA
  8
0
 62
     0
 10
-45.999614510203727
 20
-7.9999999999999254
 30
0.0
 11
-45.99961451020372
 21
69.893405170956143
 31
0.0
  0
LINE
  5
1FB
  8
0
 62
     0
 10
46.000385489796258
 20
-7.99999999999996
 30
0.0
 11
46.000385489796273
 21
69.893405170956143
 31
0.0
  0
LINE
  5
1FC
  8
0
 62
     0
 10
-45.99961451020372
 20
67.893405170956143
 30
0.0
 11
46.000385489796273
 21
67.893405170956143
 31
0.0
  0
INSERT
  5
1FD
  8
0
 62
     0
  2
_OBLIQUE
 10
-45.99961451020372
 20
67.893405170956143
 30
0.0
 41
2.0
 42
2.0
 43
2.0
 50
180.0
  0
INSERT
  5
1FE
  8
0
 62
     0
  2
_OBLIQUE
 10
46.000385489796273
 20
67.893405170956143
 30
0.0
 41
2.0
 42
2.0
 43
2.0
  0
INSERT
  5
1FF
  8
0
  2
*U13
 10
0.0
 20
0.0
 30
0.0
  0
POINT
  5
200
  8
DEFPOINTS
 62
     0
 10
-45.999614510203727
 20
-9.9999999999999254
 30
0.0
  0
POINT
  5
201
  8
DEFPOINTS
 62
     0
 10
46.000385489796258
 20
-9.9999999999999591
 30
0.0
  0
POINT
  5
202
  8
DEFPOINTS
 62
     0
 10
46.000385489796273
 20
67.893405170956143
 30
0.0
  0
ENDBLK
  5
162
  8
0
  0
BLOCK
  8
0
  2
DIMBLOCK6-REF__LEVEL
 70
     0
 10
0.0
 20
0.0
 30
0.0
  3
DIMBLOCK6-REF__LEVEL
  1

  0
LINE
  5
1EF
  8
0
 62
     0
 10
-75.999614510203742
 20
-336.99999999999977
 30
0.0
 11
-75.999614510203742
 21
-368.26157701604438
 31
0.0
  0
LINE
  5
1F0
  8
0
 62
     0
 10
-65.999614510203742
 20
-336.99999999999977
 30
0.0
 11
-65.999614510203742
 21
-368.26157701604438
 31
0.0
  0
LINE
  5
1F1
  8
0
 62
     0
 10
-75.999614510203742
 20
-366.26157701604438
 30
0.0
 11
-77.999614510203742
 21
-366.26157701604438
 31
0.0
  0
LINE
  5
1F2
  8
0
 62
     0
 10
-65.999614510203742
 20
-366.26157701604438
 30
0.0
 11
-63.999614510203742
 21
-366.26157701604438
 31
0.0
  0
LINE
  5
1F3
  8
0
 62
     0
 10
-75.999614510203742
 20
-366.26157701604438
 30
0.0
 11
-65.999614510203742
 21
-366.26157701604438
 31
0.0
  0
INSERT
  5
1F4
  8
0
 62
     0
  2
_OBLIQUE
 10
-75.999614510203742
 20
-366.26157701604438
 30
0.0
 41
2.0
 42
2.0
 43
2.0
  0
INSERT
  5
1F5
  8
0
 62
     0
  2
_OBLIQUE
 10
-65.999614510203742
 20
-366.26157701604438
 30
0.0
 41
2.0
 42
2.0
 43
2.0
 50
180.0
  0
INSERT
  5
1F6
  8
0
  2
*U12
 10
0.0
 20
0.0
 30
0.0
  0
POINT
  5
1F7
  8
DEFPOINTS
 62
     0
 10
-75.999614510203742
 20
-334.99999999999977
 30
0.0
  0
POINT
  5
1F8
  8
DEFPOINTS
 62
     0
 10
-65.999614510203742
 20
-334.99999999999977
 30
0.0
  0
POINT
  5
1F9
  8
DEFPOINTS
 62
     0
 10
-65.999614510203742
 20
-366.26157701604438
 30
0.0
  0
ENDBLK
  5
17C
  8
0
  0
BLOCK
  8
0
  2
DIMBLOCK7-REF__LEVEL
 70
     0
 10
0.0
 20
0.0
 30
0.0
  3
DIMBLOCK7-REF__LEVEL
  1

  0
LINE
  5
1E6
  8
0
 62
     0
 10
-65.999614510203742
 20
-336.99999999999977
 30
0.0
 11
-65.999614510203742
 21
-368.26157701604438
 31
0.0
  0
LINE
  5
1E7
  8
0
 62
     0
 10
-45.999614510203742
 20
-336.99999999999977
 30
0.0
 11
-45.999614510203742
 21
-368.26157701604438
 31
0.0
  0
LINE
  5
1E8
  8
0
 62
     0
 10
-65.999614510203742
 20
-366.26157701604438
 30
0.0
 11
-45.999614510203742
 21
-366.26157701604438
 31
0.0
  0
INSERT
  5
1E9
  8
0
 62
     0
  2
_OBLIQUE
 10
-65.999614510203742
 20
-366.26157701604438
 30
0.0
 41
2.0
 42
2.0
 43
2.0
 50
180.0
  0
INSERT
  5
1EA
  8
0
 62
     0
  2
_OBLIQUE
 10
-45.999614510203742
 20
-366.26157701604438
 30
0.0
 41
2.0
 42
2.0
 43
2.0
  0
INSERT
  5
1EB
  8
0
  2
*U11
 10
0.0
 20
0.0
 30
0.0
  0
POINT
  5
1EC
  8
DEFPOINTS
 62
     0
 10
-65.999614510203742
 20
-334.99999999999977
 30
0.0
  0
POINT
  5
1ED
  8
DEFPOINTS
 62
     0
 10
-45.999614510203742
 20
-334.99999999999977
 30
0.0
  0
POINT
  5
1EE
  8
DEFPOINTS
 62
     0
 10
-45.999614510203742
 20
-366.26157701604438
 30
0.0
  0
ENDBLK
  5
198
  8
0
  0
BLOCK
  8
0
  2
DIMBLOCK8-REF__LEVEL
 70
     0
 10
0.0
 20
0.0
 30
0.0
  3
DIMBLOCK8-REF__LEVEL
  1

  0
LINE
  5
1DD
  8
0
 62
     0
 10
46.000385489796258
 20
-337.0
 30
0.0
 11
46.000385489796258
 21
-368.26157701604438
 31
0.0
  0
LINE
  5
1DE
  8
0
 62
     0
 10
76.000385489796273
 20
-337.0
 30
0.0
 11
76.000385489796273
 21
-368.26157701604438
 31
0.0
  0
LINE
  5
1DF
  8
0
 62
     0
 10
46.000385489796258
 20
-366.26157701604438
 30
0.0
 11
76.000385489796273
 21
-366.26157701604438
 31
0.0
  0
INSERT
  5
1E0
  8
0
 62
     0
  2
_OBLIQUE
 10
46.000385489796258
 20
-366.26157701604438
 30
0.0
 41
2.0
 42
2.0
 43
2.0
 50
180.0
  0
INSERT
  5
1E1
  8
0
 62
     0
  2
_OBLIQUE
 10
76.000385489796273
 20
-366.26157701604438
 30
0.0
 41
2.0
 42
2.0
 43
2.0
  0
INSERT
  5
1E2
  8
0
  2
*U10
 10
0.0
 20
0.0
 30
0.0
  0
POINT
  5
1E3
  8
DEFPOINTS
 62
     0
 10
46.000385489796258
 20
-335.0
 30
0.0
  0
POINT
  5
1E4
  8
DEFPOINTS
 62
     0
 10
76.000385489796273
 20
-335.0
 30
0.0
  0
POINT
  5
1E5
  8
DEFPOINTS
 62
     0
 10
76.000385489796273
 20
-366.26157701604438
 30
0.0
  0
ENDBLK
  5
1B2
  8
0
  0
BLOCK
  8
0
  2
*U10
 70
     1
 10
0.0
 20
0.0
 30
0.0
  3
*U10
  1

  0
TEXT
  5
2D4
  8
0
 62
     0
 10
55.854951766519768
 20
-364.20320909976232
 30
0.0
 40
2.9505988023952101
  1
30.00
  7
ARIAL
  0
ENDBLK
  5
2D6
  8
0
  0
BLOCK
  8
0
  2
*U11
 70
     1
 10
0.0
 20
0.0
 30
0.0
  3
*U11
  1

  0
TEXT
  5
2D8
  8
0
 62
     0
 10
-61.11888330549175
 20
-364.20522178653067
 30
0.0
 40
2.9505988023952101
  1
20.00
  7
ARIAL
  0
ENDBLK
  5
2DA
  8
0
  0
BLOCK
  8
0
  2
*U12
 70
     1
 10
0.0
 20
0.0
 30
0.0
  3
*U12
  1

  0
TEXT
  5
2DC
  8
0
 62
     0
 10
-76.282917277111949
 20
-364.20522178653067
 30
0.0
 40
2.9505988023952101
  1
10.00
  7
ARIAL
  0
ENDBLK
  5
2DE
  8
0
  0
BLOCK
  8
0
  2
*U13
 70
     1
 10
0.0
 20
0.0
 30
0.0
  3
*U13
  1

  0
TEXT
  5
2E0
  8
0
 62
     0
 10
-5.1440418900960578
 20
69.949760400469856
 30
0.0
 40
2.9505988023952101
  1
92.00
  7
ARIAL
  0
ENDBLK
  5
2E2
  8
0
  0
BLOCK
  8
0
  2
*U14
 70
     1
 10
0.0
 20
0.0
 30
0.0
  3
*U14
  1

  0
TEXT
  5
2E4
  8
0
 62
     0
 10
-6.4291423916849819
 20
99.629567196650584
 30
0.0
 40
2.9505988023952101
  1
152.00
  7
ARIAL
  0
ENDBLK
  5
2E6
  8
0
  0
BLOCK
  8
0
  2
*U15
 70
     1
 10
0.0
 20
0.0
 30
0.0
  3
*U15
  1

  0
TEXT
  5
2E8
  8
0
 62
     0
 10
-121.1253752340741
 20
-153.79165883784941
 30
0.0
 40
2.9505988023952101
  1
375.00
 50
90.0
  7
ARIAL
  0
ENDBLK
  5
2EA
  8
0
  0
BLOCK
  8
0
  2
*U16
 70
     1
 10
0.0
 20
0.0
 30
0.0
  3
*U16
  1

  0
TEXT
  5
2EC
  8
0
 62
     0
 10
109.1766464399974
 20
9.8555726201077718
 30
0.0
 40
2.9505988023952101
  1
50.00
 50
90.0
  7
ARIAL
  0
ENDBLK
  5
2EE
  8
0
  0
BLOCK
  8
0
  2
*U17
 70
     1
 10
0.0
 20
0.0
 30
0.0
  3
*U17
  1

  0
TEXT
  5
2F0
  8
0
 62
     0
 10
109.1746337532291
 20
-178.7916588378495
 30
0.0
 40
2.9505988023952101
  1
325.00
 50
90.0
  7
ARIAL
  0
ENDBLK
  5
2F2
  8
0
  0
ENDSEC
  0
SECTION
  2
ENTITIES
  0
LINE
  5
88
  8
0
 10
76.000385489796273
 20
40.000000000000107
 30
0.0
 11
76.000385489796273
 21
-335.0
 31
0.0
1001
REVIT
1002
{
1070
     1
1000
338635
1002
}
1002
{
1070
     2
1000
-2002000
1002
}
  0
LINE
  5
89
  8
0
 10
76.000385489796273
 20
-335.0
 30
0.0
 11
66.000385489796273
 21
-335.0
 31
0.0
1001
REVIT
1002
{
1070
     1
1000
338636
1002
}
1002
{
1070
     2
1000
-2002000
1002
}
  0
LINE
  5
8A
  8
0
 10
66.000385489796273
 20
-335.0
 30
0.0
 11
66.000385489796273
 21
30.000000000000149
 31
0.0
1001
REVIT
1002
{
1070
     1
1000
338637
1002
}
1002
{
1070
     2
1000
-2002000
1002
}
  0
LINE
  5
8B
  8
0
 10
66.000385489796244
 20
30.000000000000139
 30
0.0
 11
76.000385489796273
 21
40.000000000000142
 31
0.0
1001
REVIT
1002
{
1070
     1
1000
338638
1002
}
1002
{
1070
     2
1000
-2002000
1002
}
  0
LINE
  5
8C
  8
0
 10
76.000385489796273
 20
40.000000000000107
 30
0.0
 11
-75.999614510203742
 21
40.000000000000107
 31
0.0
1001
REVIT
1002
{
1070
     1
1000
338639
1002
}
1002
{
1070
     2
1000
-2002000
1002
}
  0
LINE
  5
8D
  8
0
 10
-75.999614510203742
 20
40.000000000000107
 30
0.0
 11
-75.999614510203742
 21
-334.99999999999977
 31
0.0
1001
REVIT
1002
{
1070
     1
1000
338640
1002
}
1002
{
1070
     2
1000
-2002000
1002
}
  0
LINE
  5
8E
  8
0
 10
-75.999614510203742
 20
-334.99999999999977
 30
0.0
 11
-65.999614510203742
 21
-334.99999999999977
 31
0.0
1001
REVIT
1002
{
1070
     1
1000
338641
1002
}
1002
{
1070
     2
1000
-2002000
1002
}
  0
LINE
  5
8F
  8
0
 10
-65.999614510203742
 20
-334.99999999999977
 30
0.0
 11
-65.999614510203742
 21
30.000000000000149
 31
0.0
1001
REVIT
1002
{
1070
     1
1000
338642
1002
}
1002
{
1070
     2
1000
-2002000
1002
}
  0
LINE
  5
90
  8
0
 10
-65.999614510203742
 20
30.000000000000139
 30
0.0
 11
66.000385489796273
 21
30.000000000000139
 31
0.0
1001
REVIT
1002
{
1070
     1
1000
338643
1002
}
1002
{
1070
     2
1000
-2002000
1002
}
  0
LINE
  5
91
  8
0
 10
66.000385489796273
 20
-335.0
 30
0.0
 11
46.000385489796258
 21
-335.0
 31
0.0
1001
REVIT
1002
{
1070
     1
1000
338644
1002
}
1002
{
1070
     2
1000
-2002000
1002
}
  0
LINE
  5
92
  8
0
 10
46.000385489796258
 20
-335.0
 30
0.0
 11
46.000385489796258
 21
-9.9999999999999591
 31
0.0
1001
REVIT
1002
{
1070
     1
1000
338645
1002
}
1002
{
1070
     2
1000
-2002000
1002
}
1002
{
1070
     3
1000
206783
1002
}
  0
LINE
  5
93
  8
0
 10
46.000385489796258
 20
-9.9999999999999343
 30
0.0
 11
-45.999614510203749
 21
-9.9999999999999343
 31
0.0
1001
REVIT
1002
{
1070
     1
1000
338646
1002
}
1002
{
1070
     2
1000
-2002000
1002
}
1002
{
1070
     3
1000
206783
1002
}
  0
LINE
  5
94
  8
0
 10
-45.999614510203742
 20
-9.9999999999999343
 30
0.0
 11
-45.999614510203742
 21
-334.99999999999977
 31
0.0
1001
REVIT
1002
{
1070
     1
1000
338647
1002
}
1002
{
1070
     2
1000
-2002000
1002
}
1002
{
1070
     3
1000
206783
1002
}
  0
LINE
  5
95
  8
0
 10
-45.999614510203742
 20
-334.99999999999977
 30
0.0
 11
-65.999614510203742
 21
-334.99999999999977
 31
0.0
1001
REVIT
1002
{
1070
     1
1000
338648
1002
}
1002
{
1070
     2
1000
-2002000
1002
}
  0
LINE
  5
96
  8
0
 10
-65.999614510203742
 20
30.000000000000149
 30
0.0
 11
-75.999614510203656
 21
40.000000000000121
 31
0.0
1001
REVIT
1002
{
1070
     1
1000
338649
1002
}
1002
{
1070
     2
1000
-2002000
1002
}
  0
LINE
  5
97
  8
0
 10
-371.99961451020368
 20
30.000000000000529
 30
0.0
 11
-371.99961451020368
 21
40.000000000000519
 31
0.0
1001
REVIT
1002
{
1070
     1
1000
338656
1002
}
1002
{
1070
     2
1000
-2002000
1002
}
1002
{
1070
     3
1000
206783
1002
}
  0
LINE
  5
98
  8
0
 10
-371.99961451020368
 20
40.000000000000519
 30
0.0
 11
-374.99961451020368
 21
40.000000000000519
 31
0.0
1001
REVIT
1002
{
1070
     1
1000
338657
1002
}
1002
{
1070
     2
1000
-2002000
1002
}
1002
{
1070
     3
1000
206783
1002
}
  0
LINE
  5
99
  8
0
 10
-374.99961451020368
 20
40.000000000000519
 30
0.0
 11
-374.99961451020368
 21
-9.9999999999999343
 31
0.0
1001
REVIT
1002
{
1070
     1
1000
338658
1002
}
1002
{
1070
     2
1000
-2002000
1002
}
1002
{
1070
     3
1000
206783
1002
}
  0
LINE
  5
9A
  8
0
 10
-374.99961451020368
 20
-9.9999999999999343
 30
0.0
 11
-304.99961451020368
 21
-9.9999999999999343
 31
0.0
1001
REVIT
1002
{
1070
     1
1000
338659
1002
}
1002
{
1070
     2
1000
-2002000
1002
}
1002
{
1070
     3
1000
206783
1002
}
  0
LINE
  5
9B
  8
0
 10
-304.99961451020368
 20
-9.9999999999999343
 30
0.0
 11
-304.99961451020368
 21
-334.99999999999949
 31
0.0
1001
REVIT
1002
{
1070
     1
1000
338660
1002
}
1002
{
1070
     2
1000
-2002000
1002
}
  0
LINE
  5
9C
  8
0
 10
-304.99961451020368
 20
-334.99999999999949
 30
0.0
 11
-374.99961451020368
 21
-334.99999999999949
 31
0.0
1001
REVIT
1002
{
1070
     1
1000
338661
1002
}
1002
{
1070
     2
1000
-2002000
1002
}
  0
LINE
  5
9D
  8
0
 10
-374.99961451020368
 20
-334.99999999999949
 30
0.0
 11
-374.99961451020368
 21
-9.9999999999999591
 31
0.0
1001
REVIT
1002
{
1070
     1
1000
338662
1002
}
1002
{
1070
     2
1000
-2002000
1002
}
  0
LINE
  5
9E
  8
0
 10
-237.68000897767999
 20
613.68109639544878
 30
0.0
 11
-125.6504099097336
 21
549.00077721636387
 31
0.0
1001
REVIT
1002
{
1070
     1
1000
338663
1002
}
1002
{
1070
     2
1000
-2002000
1002
}
  0
LINE
  5
9F
  8
0
 10
-125.6504099097335
 20
549.00077721636399
 30
0.0
 11
-123.52908956617379
 21
550.22552208775562
 31
0.0
1001
REVIT
1002
{
1070
     1
1000
338664
1002
}
1002
{
1070
     2
1000
-2002000
1002
}
  0
LINE
  5
A0
  8
0
 10
-123.52908956617379
 20
550.22552208775562
 30
0.0
 11
-235.55868863412039
 21
614.90584126684053
 31
0.0
1001
REVIT
1002
{
1070
     1
1000
338665
1002
}
1002
{
1070
     2
1000
-2002000
1002
}
  0
LINE
  5
A1
  8
0
 10
-125.6504099097335
 20
549.00077721636399
 30
0.0
 11
-125.6504099097335
 21
178.17594816997749
 31
0.0
1001
REVIT
1002
{
1070
     1
1000
338666
1002
}
1002
{
1070
     2
1000
-2002000
1002
}
  0
LINE
  5
A2
  8
0
 10
-125.6504099097336
 20
178.1759481699776
 30
0.0
 11
-132.72147772159909
 21
182.25843107461611
 31
0.0
1001
REVIT
1002
{
1070
     1
1000
338667
1002
}
1002
{
1070
     2
1000
-2002000
1002
}
  0
LINE
  5
A3
  8
0
 10
-132.72147772159909
 20
182.25843107461611
 30
0.0
 11
-132.72147772159909
 21
544.91829431172539
 31
0.0
1001
REVIT
1002
{
1070
     1
1000
338668
1002
}
1002
{
1070
     2
1000
-2002000
1002
}
  0
LINE
  5
A4
  8
0
 10
-132.72147772159909
 20
544.91829431172539
 30
0.0
 11
-230.60894116581451
 21
601.4336476815331
 31
0.0
1001
REVIT
1002
{
1070
     1
1000
338669
1002
}
1002
{
1070
     2
1000
-2002000
1002
}
  0
LINE
  5
A5
  8
0
 10
-230.6089411658144
 20
601.4336476815331
 30
0.0
 11
-230.6089411658144
 21
552.44385282586916
 31
0.0
1001
REVIT
1002
{
1070
     1
1000
338670
1002
}
1002
{
1070
     2
1000
-2002000
1002
}
  0
LINE
  5
A6
  8
0
 10
-237.68000897767999
 20
548.36136992123056
 30
0.0
 11
-237.68000897767999
 21
613.68109639544878
 31
0.0
1001
REVIT
1002
{
1070
     1
1000
338671
1002
}
1002
{
1070
     2
1000
-2002000
1002
}
  0
LINE
  5
A7
  8
0
 10
-237.68000897767999
 20
613.681096395449
 30
0.0
 11
-235.5586886341205
 21
614.90584126684041
 31
0.0
1001
REVIT
1002
{
1070
     1
1000
338672
1002
}
1002
{
1070
     2
1000
-2002000
1002
}
  0
LINE
  5
A8
  8
0
 10
-235.55868863412039
 20
614.90584126684041
 30
0.0
 11
-123.52908956617399
 21
550.22552208775551
 31
0.0
1001
REVIT
1002
{
1070
     1
1000
338673
1002
}
1002
{
1070
     2
1000
-2002000
1002
}
  0
LINE
  5
A9
  8
0
 10
-123.52908956617379
 20
550.22552208775562
 30
0.0
 11
-123.52908956617379
 21
179.40069304136921
 31
0.0
1001
REVIT
1002
{
1070
     1
1000
338674
1002
}
1002
{
1070
     2
1000
-2002000
1002
}
  0
LINE
  5
AA
  8
0
 10
-123.52908956617379
 20
179.40069304136921
 30
0.0
 11
-125.6504099097336
 21
178.1759481699776
 31
0.0
1001
REVIT
1002
{
1070
     1
1000
338675
1002
}
1002
{
1070
     2
1000
-2002000
1002
}
  0
LINE
  5
AB
  8
0
 10
-123.52908956617379
 20
550.22552208775562
 30
0.0
 11
-123.52908956617379
 21
179.40069304136921
 31
0.0
1001
REVIT
1002
{
1070
     1
1000
338676
1002
}
1002
{
1070
     2
1000
-2002000
1002
}
  0
LINE
  5
AC
  8
0
 10
-132.72147772159909
 20
184.7079208173993
 30
0.0
 11
-144.74229300177041
 21
191.64814175528491
 31
0.0
1001
REVIT
1002
{
1070
     1
1000
338677
1002
}
1002
{
1070
     2
1000
-2002000
1002
}
  0
LINE
  5
AD
  8
0
 10
-144.74229300177041
 20
191.64814175528491
 30
0.0
 11
-144.74229300177041
 21
521.648141755285
 31
0.0
1001
REVIT
1002
{
1070
     1
1000
338678
1002
}
1002
{
1070
     2
1000
-2002000
1002
}
  0
LINE
  5
AE
  8
0
 10
-144.74229300177041
 20
521.648141755285
 30
0.0
 11
-214.3454851985237
 21
561.83356350653798
 31
0.0
1001
REVIT
1002
{
1070
     1
1000
338679
1002
}
1002
{
1070
     2
1000
-2002000
1002
}
  0
LINE
  5
AF
  8
0
 10
-214.3454851985237
 20
561.83356350653798
 30
0.0
 11
-144.74229300177041
 21
521.64814175528522
 31
0.0
1001
REVIT
1002
{
1070
     1
1000
338680
1002
}
1002
{
1070
     2
1000
-2002000
1002
}
  0
LINE
  5
B0
  8
0
 10
-144.74229300177049
 20
191.648141755285
 30
0.0
 11
-194.23976768482879
 21
163.0707614228148
 31
0.0
1001
REVIT
1002
{
1070
     1
1000
338681
1002
}
1002
{
1070
     2
1000
-2002000
1002
}
  0
LINE
  5
B1
  8
0
 10
-194.23976768482879
 20
493.07076142281488
 30
0.0
 11
-194.23976768482879
 21
163.0707614228148
 31
0.0
1001
REVIT
1002
{
1070
     1
1000
338682
1002
}
1002
{
1070
     2
1000
-2002000
1002
}
  0
LINE
  5
B2
  8
0
 10
-214.3454851985237
 20
561.83356350653798
 30
0.0
 11
-263.84295988158192
 21
533.25618317406793
 31
0.0
1001
REVIT
1002
{
1070
     1
1000
338683
1002
}
1002
{
1070
     2
1000
-2002000
1002
}
  0
LINE
  5
B3
  8
0
 10
-263.84295988158198
 20
533.25618317406793
 30
0.0
 11
-194.23976768482879
 21
493.07076142281488
 31
0.0
1001
REVIT
1002
{
1070
     1
1000
338684
1002
}
1002
{
1070
     2
1000
-2002000
1002
}
  0
LINE
  5
B4
  8
0
 10
-263.84295988158249
 20
198.2561831740675
 30
0.0
 11
-263.84295988158249
 21
533.25618317406747
 31
0.0
1001
REVIT
1002
{
1070
     1
1000
338685
1002
}
1002
{
1070
     2
1000
-2002000
1002
}
  0
LINE
  5
B7
  8
0
 10
-79.397224703981365
 20
303.92114898334182
 30
0.0
 11
-79.397224703981365
 21
598.92114898334205
 31
0.0
1001
REVIT
1002
{
1070
     1
1000
338686
1002
}
1002
{
1070
     2
1000
-2002000
1002
}
1002
{
1070
     3
1000
-2009514
1002
}
  0
LINE
  5
B8
  8
0
 10
-113.6443174421417
 20
618.69459522812292
 30
0.0
 11
-45.149371566554727
 21
579.14814175528204
 31
0.0
1001
REVIT
1002
{
1070
     1
1000
338687
1002
}
1002
{
1070
     2
1000
-2002000
1002
}
1002
{
1070
     3
1000
-2009514
1002
}
  0
LINE
  5
B9
  8
0
 10
-45.149371566554819
 20
579.14814175528204
 30
0.0
 11
-293.8326891200403
 21
435.57076142281591
 31
0.0
1001
REVIT
1002
{
1070
     1
1000
338688
1002
}
1002
{
1070
     2
1000
-2002000
1002
}
1002
{
1070
     3
1000
-2009514
1002
}
  0
LINE
  5
BA
  8
0
 10
-293.83268912003928
 20
435.57076142281551
 30
0.0
 11
-293.83268912003928
 21
140.5707614228165
 31
0.0
1001
REVIT
1002
{
1070
     1
1000
338689
1002
}
1002
{
1070
     2
1000
-2002000
1002
}
1002
{
1070
     3
1000
-2009514
1002
}
  0
LINE
  5
BB
  8
0
 10
-328.0790214758166
 20
160.34464667457101
 30
0.0
 11
-79.397224703981365
 21
303.92114898334182
 31
0.0
1001
REVIT
1002
{
1070
     1
1000
338690
1002
}
1002
{
1070
     2
1000
-2002000
1002
}
1002
{
1070
     3
1000
-2009514
1002
}
  0
LINE
  5
BC
  8
0
 10
-293.83268912004019
 20
435.57076142281602
 30
0.0
 11
-362.32687461324292
 21
475.11589785524097
 31
0.0
1001
REVIT
1002
{
1070
     1
1000
338691
1002
}
1002
{
1070
     2
1000
-2002000
1002
}
1002
{
1070
     3
1000
-2009514
1002
}
  0
LINE
  5
BD
  8
0
 10
-328.08054225746667
 20
455.34376865087597
 30
0.0
 11
-79.397224703981365
 21
598.92114898334205
 31
0.0
1001
REVIT
1002
{
1070
     1
1000
338692
1002
}
1002
{
1070
     2
1000
-2002000
1002
}
1002
{
1070
     3
1000
-2009514
1002
}
  0
LINE
  5
BE
  8
0
 10
-328.0790214758166
 20
160.34464667457101
 30
0.0
 11
-328.0790214758166
 21
455.34289062718102
 31
0.0
1001
REVIT
1002
{
1070
     1
1000
338693
1002
}
1002
{
1070
     2
1000
-2002000
1002
}
1002
{
1070
     3
1000
-2009514
1002
}
  0
LINE
  5
BF
  8
0
 10
-45.149371566554727
 20
579.14814175528204
 30
0.0
 11
-45.149371566554727
 21
284.14814175528193
 31
0.0
1001
REVIT
1002
{
1070
     1
1000
338694
1002
}
1002
{
1070
     2
1000
-2002000
1002
}
1002
{
1070
     3
1000
-2009514
1002
}
  0
LINE
  5
C0
  8
0
 10
-45.149371566554727
 20
284.14814175528193
 30
0.0
 11
-194.23976768482879
 21
198.07076142281329
 31
0.0
1001
REVIT
1002
{
1070
     1
1000
338695
1002
}
1002
{
1070
     2
1000
-2002000
1002
}
1002
{
1070
     3
1000
-2009514
1002
}
  0
LINE
  5
C1
  8
0
 10
-230.6089411658144
 20
601.43364768153299
 30
0.0
 11
-237.68000897767999
 21
613.68109639544923
 31
0.0
1001
REVIT
1002
{
1070
     1
1000
338696
1002
}
1002
{
1070
     2
1000
-2002000
1002
}
  0
LINE
  5
C2
  8
0
 10
-132.72147772159909
 20
544.91829431172539
 30
0.0
 11
-125.6504099097335
 21
549.00077721636399
 31
0.0
1001
REVIT
1002
{
1070
     1
1000
338697
1002
}
1002
{
1070
     2
1000
-2002000
1002
}
  0
LINE
  5
C3
  8
0
 10
-113.643557059755
 20
323.6941562113999
 30
0.0
 11
-45.14888469262447
 21
284.14786065224592
 31
0.0
1001
REVIT
1002
{
1070
     1
1000
338698
1002
}
1002
{
1070
     2
1000
-2002000
1002
}
1002
{
1070
     3
1000
-2009514
1002
}
  0
LINE
  5
C4
  8
0
 10
-294.40309446519461
 20
140.90096312608279
 30
0.0
 11
-362.32687461324292
 21
180.11677587893581
 31
0.0
1001
REVIT
1002
{
1070
     1
1000
338699
1002
}
1002
{
1070
     2
1000
-2002000
1002
}
1002
{
1070
     3
1000
-2009514
1002
}
  0
LINE
  5
C5
  8
0
 10
-86.718687090621927
 20
160.1479752335965
 30
0.0
 11
-109.3150316976274
 21
144.32584440378699
 31
0.0
1001
REVIT
1002
{
1070
     1
1000
338700
1002
}
1002
{
1070
     2
1000
-2002000
1002
}
  0
LINE
  5
C6
  8
0
 10
-86.718687090621927
 20
210.1473522217122
 30
0.0
 11
-86.718687090621927
 21
160.14797523359641
 31
0.0
1001
REVIT
1002
{
1070
     1
1000
338701
1002
}
1002
{
1070
     2
1000
-2002000
1002
}
  0
LINE
  5
C7
  8
0
 10
-86.718687090621927
 20
160.14735222171211
 30
0.0
 11
-123.52908956617379
 21
181.39984799995051
 31
0.0
1001
REVIT
1002
{
1070
     1
1000
338702
1002
}
1002
{
1070
     2
1000
-2002000
1002
}
  0
LINE
  5
C8
  8
0
 10
-86.718687090621927
 20
210.1473522217122
 30
0.0
 11
-123.52908956617379
 21
231.39984799995059
 31
0.0
1001
REVIT
1002
{
1070
     1
1000
338703
1002
}
1002
{
1070
     2
1000
-2002000
1002
}
  0
LINE
  5
C9
  8
0
 10
-109.3150316976274
 20
144.32584440378699
 30
0.0
 11
-109.3150316976274
 21
109.3264674156713
 31
0.0
1001
REVIT
1002
{
1070
     1
1000
338704
1002
}
1002
{
1070
     2
1000
-2002000
1002
}
  0
LINE
  5
CA
  8
0
 10
-109.3150316976274
 20
109.3264674156713
 30
0.0
 11
-112.8505656035602
 21
105.79093350973849
 31
0.0
1001
REVIT
1002
{
1070
     1
1000
338705
1002
}
1002
{
1070
     2
1000
-2002000
1002
}
  0
LINE
  5
CB
  8
0
 10
-109.3150316976274
 20
109.3264674156713
 30
0.0
 11
-306.37600654126248
 21
223.09967428841429
 31
0.0
1001
REVIT
1002
{
1070
     1
1000
338706
1002
}
1002
{
1070
     2
1000
-2002000
1002
}
  0
LINE
  5
CC
  8
0
 10
-112.8505656035602
 20
105.79093350973849
 30
0.0
 11
-309.91154044719377
 21
219.5641403824807
 31
0.0
1001
REVIT
1002
{
1070
     1
1000
338707
1002
}
1002
{
1070
     2
1000
-2002000
1002
}
  0
LINE
  5
CD
  8
0
 10
-283.77857103585569
 20
323.92164999285768
 30
0.0
 11
-283.77857103585569
 21
273.92227300474212
 31
0.0
1001
REVIT
1002
{
1070
     1
1000
338708
1002
}
1002
{
1070
     2
1000
-2002000
1002
}
  0
LINE
  5
CE
  8
0
 10
-283.77857103585569
 20
273.92227300474212
 30
0.0
 11
-263.84295988158249
 21
262.41244253836288
 31
0.0
1001
REVIT
1002
{
1070
     1
1000
338709
1002
}
1002
{
1070
     2
1000
-2002000
1002
}
  0
LINE
  5
CF
  8
0
 10
-283.77857103585569
 20
323.92164999285768
 30
0.0
 11
-263.84295988158249
 21
312.41181952647872
 31
0.0
1001
REVIT
1002
{
1070
     1
1000
338710
1002
}
1002
{
1070
     2
1000
-2002000
1002
}
  0
LINE
  5
D0
  8
0
 10
-109.3150316976274
 20
144.32584440378699
 30
0.0
 11
-168.01097402153729
 21
178.21396250483519
 31
0.0
1001
REVIT
1002
{
1070
     1
1000
338711
1002
}
1002
{
1070
     2
1000
-2002000
1002
}
  0
LINE
  5
D1
  8
0
 10
-283.7796619342592
 20
273.92118210633822
 30
0.0
 11
-306.37600654126271
 21
258.09905127653008
 31
0.0
1001
REVIT
1002
{
1070
     1
1000
338712
1002
}
1002
{
1070
     2
1000
-2002000
1002
}
  0
LINE
  5
D2
  8
0
 10
-306.37600654126243
 20
258.0990512765303
 30
0.0
 11
-306.37600654126248
 21
223.09967428841421
 31
0.0
1001
REVIT
1002
{
1070
     1
1000
338713
1002
}
1002
{
1070
     2
1000
-2002000
1002
}
  0
LINE
  5
D3
  8
0
 10
-306.37600654126089
 20
223.09967428841341
 30
0.0
 11
-309.91154044719377
 21
219.56414038248059
 31
0.0
1001
REVIT
1002
{
1070
     1
1000
338714
1002
}
1002
{
1070
     2
1000
-2002000
1002
}
  0
LINE
  5
D4
  8
0
 10
-263.84295988158249
 20
233.54258533810881
 30
0.0
 11
-306.37600654126271
 21
258.09905127653008
 31
0.0
1001
REVIT
1002
{
1070
     1
1000
338715
1002
}
1002
{
1070
     2
1000
-2002000
1002
}
  0
LINE
  5
D5
  8
0
 10
-194.23976768482879
 20
193.35716358685571
 30
0.0
 11
-237.61416621829071
 21
218.39938425608821
 31
0.0
1001
REVIT
1002
{
1070
     1
1000
338716
1002
}
1002
{
1070
     2
1000
-2002000
1002
}
  0
LINE
  5
D6
  8
0
 10
-194.23976768482879
 20
198.07076142281329
 30
0.0
 11
-293.83268912003928
 21
140.57076142281639
 31
0.0
1001
REVIT
1002
{
1070
     1
1000
338717
1002
}
1002
{
1070
     2
1000
-2002000
1002
}
1002
{
1070
     3
1000
-2009514
1002
}
  0
LINE
  5
D7
  8
0
 10
-362.32687461324292
 20
180.1176539026311
 30
0.0
 11
-114.03824085535879
 21
323.46716343946179
 31
0.0
1001
REVIT
1002
{
1070
     1
1000
338718
1002
}
1002
{
1070
     2
1000
-2002000
1002
}
1002
{
1070
     3
1000
-2009514
1002
}
  0
LINE
  5
D8
  8
0
 10
-362.32687461324292
 20
475.1176539026311
 30
0.0
 11
-113.6443174421417
 21
618.69459522812292
 31
0.0
1001
REVIT
1002
{
1070
     1
1000
338719
1002
}
1002
{
1070
     2
1000
-2002000
1002
}
1002
{
1070
     3
1000
-2009514
1002
}
  0
LINE
  5
D9
  8
0
 10
-362.32687461324292
 20
180.1176539026311
 30
0.0
 11
-362.32687461324292
 21
475.1176539026311
 31
0.0
1001
REVIT
1002
{
1070
     1
1000
338720
1002
}
1002
{
1070
     2
1000
-2002000
1002
}
1002
{
1070
     3
1000
-2009514
1002
}
  0
LINE
  5
DA
  8
0
 10
-114.03824085535879
 20
323.46716343946179
 30
0.0
 11
-114.03824085535879
 21
618.92158800493689
 31
0.0
1001
REVIT
1002
{
1070
     1
1000
338721
1002
}
1002
{
1070
     2
1000
-2002000
1002
}
1002
{
1070
     3
1000
-2009514
1002
}
  0
LINE
  5
DB
  8
0
 10
-194.23976768482879
 20
243.44160492532029
 30
0.0
 11
-263.84295988158249
 21
203.25618317406759
 31
0.0
1001
REVIT
1002
{
1070
     1
1000
338722
1002
}
1002
{
1070
     2
1000
-2002000
1002
}
  0
LINE
  5
DC
  8
0
  6
DASH
 10
-362.32687461324292
 20
475.1176539026311
 30
0.0
 11
-328.0796418799253
 21
160.34412684135489
 31
0.0
1001
REVIT
1002
{
1070
     1
1000
338723
1002
}
1002
{
1070
     2
1000
-2002000
1002
}
1002
{
1070
     3
1000
291475
1002
}
  0
LINE
  5
DD
  8
0
  6
DASH
 10
-328.07982162338078
 20
455.3475611070383
 30
0.0
 11
-362.32675690428192
 21
180.11772186193119
 31
0.0
1001
REVIT
1002
{
1070
     1
1000
338724
1002
}
1002
{
1070
     2
1000
-2002000
1002
}
1002
{
1070
     3
1000
291475
1002
}
  0
LINE
  5
DE
  8
0
  6
DASH
 10
-328.07982162338078
 20
455.34756110703819
 30
0.0
 11
-293.83268912003899
 21
140.57495528056521
 31
0.0
1001
REVIT
1002
{
1070
     1
1000
338725
1002
}
1002
{
1070
     2
1000
-2002000
1002
}
1002
{
1070
     3
1000
291475
1002
}
  0
LINE
  5
DF
  8
0
  6
DASH
 10
-293.83306931545258
 20
435.57098092873969
 30
0.0
 11
-328.07964187992508
 21
160.34412684135489
 31
0.0
1001
REVIT
1002
{
1070
     1
1000
338726
1002
}
1002
{
1070
     2
1000
-2002000
1002
}
1002
{
1070
     3
1000
291475
1002
}
  0
LINE
  5
E0
  8
0
  6
DASH
 10
-113.64355705975611
 20
618.69503423509786
 30
0.0
 11
-79.396324326437679
 21
303.92150717381429
 31
0.0
1001
REVIT
1002
{
1070
     1
1000
338727
1002
}
1002
{
1070
     2
1000
-2002000
1002
}
1002
{
1070
     3
1000
291475
1002
}
  0
LINE
  5
E1
  8
0
  6
DASH
 10
-79.396504069893339
 20
598.92494143949853
 30
0.0
 11
-113.643557059755
 21
323.69415621139979
 31
0.0
1001
REVIT
1002
{
1070
     1
1000
338728
1002
}
1002
{
1070
     2
1000
-2002000
1002
}
1002
{
1070
     3
1000
291475
1002
}
  0
LINE
  5
E2
  8
0
  6
DASH
 10
-79.396504069893339
 20
598.92494143949853
 30
0.0
 11
-45.148884692624407
 21
284.14786065224592
 31
0.0
1001
REVIT
1002
{
1070
     1
1000
338729
1002
}
1002
{
1070
     2
1000
-2002000
1002
}
1002
{
1070
     3
1000
291475
1002
}
  0
LINE
  5
E3
  8
0
  6
DASH
 10
-45.149751761965113
 20
579.14836126119985
 30
0.0
 11
-79.396324326437636
 21
303.9215071738144
 31
0.0
1001
REVIT
1002
{
1070
     1
1000
338730
1002
}
1002
{
1070
     2
1000
-2002000
1002
}
1002
{
1070
     3
1000
291475
1002
}
  0
ENDSEC
  0
EOF
