  0
SECTION
  2
HEADER
  9
$ACADVER
  1
AC1009
  9
$INSBASE
 10
0.0
 20
0.0
 30
0.0
  9
$EXTMIN
 10
-23.81973267019157
 20
-31.413731622862471
 30
0.0
  9
$EXTMAX
 10
110.5440361058198
 20
129.96305091510479
 30
0.0
  9
$LIMMIN
 10
0.0
 20
0.0
  9
$LIMMAX
 10
12.0
 20
9.0
  9
$ORTHOMODE
 70
     0
  9
$REGENMODE
 70
     1
  9
$FILLMODE
 70
     1
  9
$QTEXTMODE
 70
     0
  9
$MIRRTEXT
 70
     0
  9
$DRAGMODE
 70
     2
  9
$LTSCALE
 40
1.0
  9
$OSMODE
 70
   127
  9
$ATTMODE
 70
     1
  9
$TEXTSIZE
 40
0.2
  9
$TRACEWID
 40
0.05
  9
$TEXTSTYLE
  7
STANDARD
  9
$CLAYER
  8
0
  9
$CELTYPE
  6
BYLAYER
  9
$CECOLOR
 62
   256
  9
$DIMSCALE
 40
1.0
  9
$DIMASZ
 40
0.18
  9
$DIMEXO
 40
0.0625
  9
$DIMDLI
 40
0.38
  9
$DIMRND
 40
0.0
  9
$DIMDLE
 40
0.0
  9
$DIMEXE
 40
0.18
  9
$DIMTP
 40
0.0
  9
$DIMTM
 40
0.0
  9
$DIMTXT
 40
0.18
  9
$DIMCEN
 40
0.09
  9
$DIMTSZ
 40
0.0
  9
$DIMTOL
 70
     0
  9
$DIMLIM
 70
     0
  9
$DIMTIH
 70
     1
  9
$DIMTOH
 70
     1
  9
$DIMSE1
 70
     0
  9
$DIMSE2
 70
     0
  9
$DIMTAD
 70
     0
  9
$DIMZIN
 70
     0
  9
$DIMBLK
  1

  9
$DIMASO
 70
     1
  9
$DIMSHO
 70
     1
  9
$DIMPOST
  1

  9
$DIMAPOST
  1

  9
$DIMALT
 70
     0
  9
$DIMALTD
 70
     2
  9
$DIMALTF
 40
25.399999999999999
  9
$DIMLFAC
 40
1.0
  9
$DIMTOFL
 70
     0
  9
$DIMTVP
 40
0.0
  9
$DIMTIX
 70
     0
  9
$DIMSOXD
 70
     0
  9
$DIMSAH
 70
     0
  9
$DIMBLK1
  1

  9
$DIMBLK2
  1

  9
$DIMSTYLE
  2
STANDARD
  9
$DIMCLRD
 70
     0
  9
$DIMCLRE
 70
     0
  9
$DIMCLRT
 70
     0
  9
$DIMTFAC
 40
1.0
  9
$DIMGAP
 40
0.09
  9
$LUNITS
 70
     2
  9
$LUPREC
 70
     4
  9
$SKETCHINC
 40
0.1
  9
$FILLETRAD
 40
0.0
  9
$AUNITS
 70
     0
  9
$AUPREC
 70
     0
  9
$MENU
  1
.
  9
$ELEVATION
 40
0.0
  9
$PELEVATION
 40
0.0
  9
$THICKNESS
 40
0.0
  9
$LIMCHECK
 70
     0
  9
$BLIPMODE
 70
     0
  9
$CHAMFERA
 40
0.0
  9
$CHAMFERB
 40
0.0
  9
$SKPOLY
 70
     0
  9
$TDCREATE
 40
2457375.5609607641
  9
$TDUPDATE
 40
2457378.9893032061
  9
$TDINDWG
 40
0.0001182523
  9
$TDUSRTIMER
 40
0.0001182523
  9
$USRTIMER
 70
     1
  9
$ANGBASE
 50
0.0
  9
$ANGDIR
 70
     0
  9
$PDMODE
 70
     0
  9
$PDSIZE
 40
0.0
  9
$PLINEWID
 40
0.0
  9
$COORDS
 70
     2
  9
$SPLFRAME
 70
     0
  9
$SPLINETYPE
 70
     6
  9
$SPLINESEGS
 70
     8
  9
$ATTDIA
 70
     0
  9
$ATTREQ
 70
     0
  9
$HANDLING
 70
     1
  9
$HANDSEED
  5
22F
  9
$SURFTAB1
 70
     6
  9
$SURFTAB2
 70
     6
  9
$SURFTYPE
 70
     6
  9
$SURFU
 70
     6
  9
$SURFV
 70
     6
  9
$UCSNAME
  2

  9
$UCSORG
 10
0.0
 20
0.0
 30
0.0
  9
$UCSXDIR
 10
1.0
 20
0.0
 30
0.0
  9
$UCSYDIR
 10
0.0
 20
1.0
 30
0.0
  9
$PUCSNAME
  2

  9
$PUCSORG
 10
0.0
 20
0.0
 30
0.0
  9
$PUCSXDIR
 10
1.0
 20
0.0
 30
0.0
  9
$PUCSYDIR
 10
0.0
 20
1.0
 30
0.0
  9
$USERI1
 70
     0
  9
$USERI2
 70
     0
  9
$USERI3
 70
     0
  9
$USERI4
 70
     0
  9
$USERI5
 70
     0
  9
$USERR1
 40
0.0
  9
$USERR2
 40
0.0
  9
$USERR3
 40
0.0
  9
$USERR4
 40
0.0
  9
$USERR5
 40
0.0
  9
$WORLDVIEW
 70
     1
  9
$SHADEDGE
 70
     3
  9
$SHADEDIF
 70
    70
  9
$TILEMODE
 70
     1
  9
$MAXACTVP
 70
    64
  9
$PLIMCHECK
 70
     0
  9
$PEXTMIN
 10
0.0
 20
0.0
 30
0.0
  9
$PEXTMAX
 10
0.0
 20
0.0
 30
0.0
  9
$PLIMMIN
 10
0.0
 20
0.0
  9
$PLIMMAX
 10
12.0
 20
9.0
  9
$UNITMODE
 70
     0
  9
$VISRETAIN
 70
     1
  9
$PLINEGEN
 70
     0
  9
$PSLTSCALE
 70
     1
  0
ENDSEC
  0
SECTION
  2
TABLES
  0
TABLE
  2
VPORT
 70
     1
  0
VPORT
  2
*ACTIVE
 70
     0
 10
0.0
 20
0.0
 11
1.0
 21
1.0
 12
154.23849376204669
 22
49.384198413062073
 13
0.0
 23
0.0
 14
1.0
 24
1.0
 15
0.0
 25
0.0
 16
0.0
 26
0.0
 36
1.0
 17
0.0
 27
0.0
 37
0.0
 40
132.44915892184639
 41
1.7244755244755241
 42
50.0
 43
0.0
 44
0.0
 50
0.0
 51
0.0
 71
     0
 72
  1000
 73
     1
 74
     3
 75
     0
 76
     0
 77
     0
 78
     0
  0
ENDTAB
  0
TABLE
  2
LTYPE
 70
     1
  0
LTYPE
  2
CONTINUOUS
 70
     0
  3
Solid line
 72
    65
 73
     0
 40
0.0
  0
ENDTAB
  0
TABLE
  2
LAYER
 70
     5
  0
LAYER
  2
0
 70
     0
 62
     7
  6
CONTINUOUS
  0
LAYER
  2
DEFPOINTS
 70
     0
 62
     7
  6
CONTINUOUS
  0
ENDTAB
  0
TABLE
  2
STYLE
 70
     3
  0
STYLE
  2
STANDARD
 70
     0
 40
0.0
 41
1.0
 50
0.0
 71
     0
 42
0.2
  3
txt
  4

  0
STYLE
  2
ARIAL
 70
     0
 40
2.9505988023952101
 41
1.0
 50
0.0
 71
     0
 42
0.2
  3
txt
  4

  0
ENDTAB
  0
TABLE
  2
VIEW
 70
     0
  0
ENDTAB
  0
TABLE
  2
UCS
 70
     0
  0
ENDTAB
  0
TABLE
  2
APPID
 70
     5
  0
APPID
  2
ACAD
 70
     0
  0
APPID
  2
ACADANNOTATIVE
 70
     0
  0
APPID
  2
REVIT
 70
     0
  0
APPID
  2
ACAD_NAV_VCDISPLAY
 70
     0
  0
APPID
  2
ACAD_MLEADERVER
 70
     0
  0
ENDTAB
  0
TABLE
  2
DIMSTYLE
 70
     3
  0
DIMSTYLE
  2
STANDARD
 70
     0
  3

  4

  5

  6

  7

 40
1.0
 41
0.18
 42
0.0625
 43
0.38
 44
0.18
 45
0.0
 46
0.0
 47
0.0
 48
0.0
140
0.18
141
0.09
142
0.0
143
25.399999999999999
144
1.0
145
0.0
146
1.0
147
0.09
 71
     0
 72
     0
 73
     1
 74
     1
 75
     0
 76
     0
 77
     0
 78
     0
170
     0
171
     2
172
     0
173
     0
174
     0
175
     0
176
     0
177
     0
178
     0
  0
DIMSTYLE
  2
LINEAR
 70
     0
  3
<>
  4

  5

  6
OBLIQUE
  7
OBLIQUE
 40
304.80000000000001
 41
0.0065616797900262
 42
0.0065616797900262
 43
0.38
 44
0.0065616797900262
 45
0.01
 46
0.0
 47
0.0
 48
0.0
140
3.0
141
0.09
142
0.0
143
25.399999999999999
144
1.0
145
1.0
146
1.0
147
0.0065616797900262
 71
     0
 72
     0
 73
     0
 74
     0
 75
     0
 76
     0
 77
     1
 78
     0
170
     0
171
     2
172
     1
173
     1
174
     1
175
     0
176
     0
177
     0
178
     0
  0
ENDTAB
  0
ENDSEC
  0
SECTION
  2
BLOCKS
  0
BLOCK
  8
0
  2
$MODEL_SPACE
 70
     0
 10
0.0
 20
0.0
 30
0.0
  3
$MODEL_SPACE
  1

  0
ENDBLK
  5
72
  8
0
  0
BLOCK
 67
     1
  8
0
  2
$PAPER_SPACE
 70
     0
 10
0.0
 20
0.0
 30
0.0
  3
$PAPER_SPACE
  1

  0
ENDBLK
  5
76
 67
     1
  8
0
  0
BLOCK
  8
0
  2
_OBLIQUE
 70
     0
 10
0.0
 20
0.0
 30
0.0
  3
_OBLIQUE
  1

  0
LINE
  5
9F
  8
0
  6
BYBLOCK
 62
     0
 10
-0.5
 20
-0.5
 30
0.0
 11
0.5
 21
0.5
 31
0.0
  0
ENDBLK
  5
A1
  8
0
  0
BLOCK
  8
0
  2
DIMBLOCK1-REF__LEVEL
 70
     0
 10
0.0
 20
0.0
 30
0.0
  3
DIMBLOCK1-REF__LEVEL
  1

  0
LINE
  5
164
  8
0
 62
     0
 10
107.95824966819281
 20
109.9999999999996
 30
0.0
 11
106.5440361058197
 21
109.9999999999996
 31
0.0
  0
LINE
  5
165
  8
0
 62
     0
 10
107.95824966819281
 20
99.999999999999602
 30
0.0
 11
106.5440361058197
 21
99.999999999999602
 31
0.0
  0
LINE
  5
166
  8
0
 62
     0
 10
108.5440361058197
 20
109.9999999999996
 30
0.0
 11
108.5440361058197
 21
111.9999999999996
 31
0.0
  0
LINE
  5
167
  8
0
 62
     0
 10
108.5440361058197
 20
99.999999999999602
 30
0.0
 11
108.5440361058197
 21
97.999999999999616
 31
0.0
  0
LINE
  5
168
  8
0
 62
     0
 10
108.5440361058197
 20
109.9999999999996
 30
0.0
 11
108.5440361058197
 21
99.999999999999602
 31
0.0
  0
INSERT
  5
169
  8
0
 62
     0
  2
_OBLIQUE
 10
108.5440361058197
 20
109.9999999999996
 30
0.0
 41
2.0
 42
2.0
 43
2.0
 50
270.0
  0
INSERT
  5
16A
  8
0
 62
     0
  2
_OBLIQUE
 10
108.5440361058197
 20
99.999999999999602
 30
0.0
 41
2.0
 42
2.0
 43
2.0
 50
90.0
  0
INSERT
  5
16B
  8
0
  2
*U11
 10
0.0
 20
0.0
 30
0.0
  0
POINT
  5
16C
  8
DEFPOINTS
 62
     0
 10
109.95824966819281
 20
109.9999999999996
 30
0.0
  0
POINT
  5
16D
  8
DEFPOINTS
 62
     0
 10
109.95824966819281
 20
99.999999999999602
 30
0.0
  0
POINT
  5
16E
  8
DEFPOINTS
 62
     0
 10
108.5440361058197
 20
99.999999999999602
 30
0.0
  0
ENDBLK
  5
9C
  8
0
  0
BLOCK
  8
0
  2
DIMBLOCK2-REF__LEVEL
 70
     0
 10
0.0
 20
0.0
 30
0.0
  3
DIMBLOCK2-REF__LEVEL
  1

  0
LINE
  5
15B
  8
0
 62
     0
 10
-17.797074762381769
 20
110.0
 30
0.0
 11
-19.211288324755191
 21
110.0
 31
0.0
  0
LINE
  5
15C
  8
0
 62
     0
 10
-17.797074762381939
 20
-0.000000000000004
 30
0.0
 11
-19.21128832475522
 21
-0.0000000000000036
 31
0.0
  0
LINE
  5
15D
  8
0
 62
     0
 10
-17.211288324755191
 20
110.0
 30
0.0
 11
-17.21128832475522
 21
-0.0000000000000042
 31
0.0
  0
INSERT
  5
15E
  8
0
 62
     0
  2
_OBLIQUE
 10
-17.211288324755191
 20
110.0
 30
0.0
 41
2.0
 42
2.0
 43
2.0
 50
90.0
  0
INSERT
  5
15F
  8
0
 62
     0
  2
_OBLIQUE
 10
-17.21128832475522
 20
-0.0000000000000042
 30
0.0
 41
2.0
 42
2.0
 43
2.0
 50
270.0
  0
INSERT
  5
160
  8
0
  2
*U10
 10
0.0
 20
0.0
 30
0.0
  0
POINT
  5
161
  8
DEFPOINTS
 62
     0
 10
-15.79707476238177
 20
110.0
 30
0.0
  0
POINT
  5
162
  8
DEFPOINTS
 62
     0
 10
-15.79707476238193
 20
-0.0000000000000046
 30
0.0
  0
POINT
  5
163
  8
DEFPOINTS
 62
     0
 10
-17.21128832475522
 20
-0.0000000000000042
 30
0.0
  0
ENDBLK
  5
BF
  8
0
  0
BLOCK
  8
0
  2
DIMBLOCK3-REF__LEVEL
 70
     0
 10
0.0
 20
0.0
 30
0.0
  3
DIMBLOCK3-REF__LEVEL
  1

  0
LINE
  5
150
  8
0
 62
     0
 10
109.12982254344649
 20
-10.00000000000059
 30
0.0
 11
110.5440361058198
 21
-10.00000000000059
 31
0.0
  0
LINE
  5
151
  8
0
 62
     0
 10
109.12982254344671
 20
-0.0000000000000006
 30
0.0
 11
110.5440361058198
 21
-0.000000000000001
 31
0.0
  0
LINE
  5
152
  8
0
 62
     0
 10
108.5440361058198
 20
-10.00000000000059
 30
0.0
 11
108.5440361058198
 21
-12.00000000000059
 31
0.0
  0
LINE
  5
153
  8
0
 62
     0
 10
108.5440361058198
 20
-0.0000000000000004
 30
0.0
 11
108.5440361058198
 21
1.9999999999999989
 31
0.0
  0
LINE
  5
154
  8
0
 62
     0
 10
108.5440361058198
 20
-10.00000000000059
 30
0.0
 11
108.5440361058198
 21
-0.0000000000000004
 31
0.0
  0
INSERT
  5
155
  8
0
 62
     0
  2
_OBLIQUE
 10
108.5440361058198
 20
-10.00000000000059
 30
0.0
 41
2.0
 42
2.0
 43
2.0
 50
90.0
  0
INSERT
  5
156
  8
0
 62
     0
  2
_OBLIQUE
 10
108.5440361058198
 20
-0.0000000000000004
 30
0.0
 41
2.0
 42
2.0
 43
2.0
 50
270.0
  0
INSERT
  5
157
  8
0
  2
*U9
 10
0.0
 20
0.0
 30
0.0
  0
POINT
  5
158
  8
DEFPOINTS
 62
     0
 10
107.12982254344649
 20
-10.00000000000059
 30
0.0
  0
POINT
  5
159
  8
DEFPOINTS
 62
     0
 10
107.12982254344671
 20
0.0
 30
0.0
  0
POINT
  5
15A
  8
DEFPOINTS
 62
     0
 10
108.5440361058198
 20
-0.0000000000000004
 30
0.0
  0
ENDBLK
  5
D9
  8
0
  0
BLOCK
  8
0
  2
DIMBLOCK4-REF__LEVEL
 70
     0
 10
0.0
 20
0.0
 30
0.0
  3
DIMBLOCK4-REF__LEVEL
  1

  0
LINE
  5
147
  8
0
 62
     0
 10
-0.0000000000000001
 20
-29.999518060489379
 30
0.0
 11
-0.0000000000000002
 21
-31.413731622862471
 31
0.0
  0
LINE
  5
148
  8
0
 62
     0
 10
70.000000000000028
 20
-29.999518060489411
 30
0.0
 11
70.000000000000028
 21
-31.413731622862471
 31
0.0
  0
LINE
  5
149
  8
0
 62
     0
 10
-0.0000000000000001
 20
-29.413731622862471
 30
0.0
 11
70.000000000000028
 21
-29.413731622862471
 31
0.0
  0
INSERT
  5
14A
  8
0
 62
     0
  2
_OBLIQUE
 10
-0.0000000000000001
 20
-29.413731622862471
 30
0.0
 41
2.0
 42
2.0
 43
2.0
 50
180.0
  0
INSERT
  5
14B
  8
0
 62
     0
  2
_OBLIQUE
 10
70.000000000000028
 20
-29.413731622862471
 30
0.0
 41
2.0
 42
2.0
 43
2.0
  0
INSERT
  5
14C
  8
0
  2
*U8
 10
0.0
 20
0.0
 30
0.0
  0
POINT
  5
14D
  8
DEFPOINTS
 62
     0
 10
0.0
 20
-27.999518060489379
 30
0.0
  0
POINT
  5
14E
  8
DEFPOINTS
 62
     0
 10
70.000000000000028
 20
-27.999518060489411
 30
0.0
  0
POINT
  5
14F
  8
DEFPOINTS
 62
     0
 10
70.000000000000028
 20
-29.413731622862471
 30
0.0
  0
ENDBLK
  5
F5
  8
0
  0
BLOCK
  8
0
  2
DIMBLOCK5-REF__LEVEL
 70
     0
 10
0.0
 20
0.0
 30
0.0
  3
DIMBLOCK5-REF__LEVEL
  1

  0
LINE
  5
13C
  8
0
 62
     0
 10
-0.0000000000000001
 20
122.7688201320414
 30
0.0
 11
-0.0000000000000002
 21
121.35460656966831
 31
0.0
  0
LINE
  5
13D
  8
0
 62
     0
 10
2.9999999999999991
 20
122.7688201320414
 30
0.0
 11
2.9999999999999991
 21
121.35460656966831
 31
0.0
  0
LINE
  5
13E
  8
0
 62
     0
 10
-0.0000000000000001
 20
123.35460656966831
 30
0.0
 11
-2.0
 21
123.35460656966831
 31
0.0
  0
LINE
  5
13F
  8
0
 62
     0
 10
2.9999999999999991
 20
123.35460656966831
 30
0.0
 11
5.0
 21
123.35460656966831
 31
0.0
  0
LINE
  5
140
  8
0
 62
     0
 10
-0.0000000000000001
 20
123.35460656966831
 30
0.0
 11
2.9999999999999991
 21
123.35460656966831
 31
0.0
  0
INSERT
  5
141
  8
0
 62
     0
  2
_OBLIQUE
 10
-0.0000000000000001
 20
123.35460656966831
 30
0.0
 41
2.0
 42
2.0
 43
2.0
  0
INSERT
  5
142
  8
0
 62
     0
  2
_OBLIQUE
 10
2.9999999999999991
 20
123.35460656966831
 30
0.0
 41
2.0
 42
2.0
 43
2.0
 50
180.0
  0
INSERT
  5
143
  8
0
  2
*U7
 10
0.0
 20
0.0
 30
0.0
  0
POINT
  5
144
  8
DEFPOINTS
 62
     0
 10
0.0
 20
124.7688201320414
 30
0.0
  0
POINT
  5
145
  8
DEFPOINTS
 62
     0
 10
2.9999999999999991
 20
124.7688201320414
 30
0.0
  0
POINT
  5
146
  8
DEFPOINTS
 62
     0
 10
2.9999999999999991
 20
123.35460656966831
 30
0.0
  0
ENDBLK
  5
10F
  8
0
  0
BLOCK
  8
0
  2
*U7
 70
     1
 10
0.0
 20
0.0
 30
0.0
  3
*U7
  1

  0
TEXT
  5
21C
  8
0
 62
     0
 10
-2.4992086087034671
 20
125.4129744859503
 30
0.0
 40
2.9505988023952101
  1
3.00
  7
ARIAL
  0
ENDBLK
  5
21E
  8
0
  0
BLOCK
  8
0
  2
*U8
 70
     1
 10
0.0
 20
0.0
 30
0.0
  3
*U8
  1

  0
TEXT
  5
220
  8
0
 62
     0
 10
29.843496499497611
 20
-27.35737639334879
 30
0.0
 40
2.9505988023952101
  1
70.00
  7
ARIAL
  0
ENDBLK
  5
222
  8
0
  0
BLOCK
  8
0
  2
*U9
 70
     1
 10
0.0
 20
0.0
 30
0.0
  3
*U9
  1

  0
TEXT
  5
224
  8
0
 62
     0
 10
106.4876808763061
 20
-10.283302766908481
 30
0.0
 40
2.9505988023952101
  1
10.00
 50
90.0
  7
ARIAL
  0
ENDBLK
  5
226
  8
0
  0
BLOCK
  8
0
  2
*U10
 70
     1
 10
0.0
 20
0.0
 30
0.0
  3
*U10
  1

  0
TEXT
  5
228
  8
0
 62
     0
 10
-19.267643554268901
 20
48.570472118518758
 30
0.0
 40
2.9505988023952101
  1
110.00
 50
90.0
  7
ARIAL
  0
ENDBLK
  5
22A
  8
0
  0
BLOCK
  8
0
  2
*U11
 70
     1
 10
0.0
 20
0.0
 30
0.0
  3
*U11
  1

  0
TEXT
  5
22C
  8
0
 62
     0
 10
106.487680876306
 20
99.716697233091423
 30
0.0
 40
2.9505988023952101
  1
10.00
 50
90.0
  7
ARIAL
  0
ENDBLK
  5
22E
  8
0
  0
ENDSEC
  0
SECTION
  2
ENTITIES
  0
LINE
  5
88
  8
0
 10
0.0
 20
109.9999999999999
 30
0.0
 11
-0.0000000000001777
 21
0.0
 31
0.0
1001
REVIT
1002
{
1070
     1
1000
316076
1002
}
1002
{
1070
     2
1000
-2002000
1002
}
1002
{
1070
     3
1000
206783
1002
}
  0
LINE
  5
89
  8
0
 10
0.0
 20
109.9999999999999
 30
0.0
 11
2.999999999999976
 21
109.9999999999999
 31
0.0
1001
REVIT
1002
{
1070
     1
1000
316079
1002
}
1002
{
1070
     2
1000
-2002000
1002
}
1002
{
1070
     3
1000
206783
1002
}
  0
LINE
  5
8A
  8
0
 10
2.999999999999976
 20
109.9999999999999
 30
0.0
 11
2.99999999999996
 21
99.999999999999943
 31
0.0
1001
REVIT
1002
{
1070
     1
1000
316082
1002
}
1002
{
1070
     2
1000
-2002000
1002
}
1002
{
1070
     3
1000
206783
1002
}
  0
LINE
  5
8B
  8
0
 10
70.000000000000071
 20
-0.0000000000002263
 30
0.0
 11
70.000000000000057
 21
-10.000000000000471
 31
0.0
1001
REVIT
1002
{
1070
     1
1000
316085
1002
}
1002
{
1070
     2
1000
-2002000
1002
}
1002
{
1070
     3
1000
206783
1002
}
  0
LINE
  5
8C
  8
0
 10
-0.0000000000001777
 20
0.0
 30
0.0
 11
70.000000000000071
 21
-0.0000000000002263
 31
0.0
1001
REVIT
1002
{
1070
     1
1000
316088
1002
}
1002
{
1070
     2
1000
-2002000
1002
}
1002
{
1070
     3
1000
206783
1002
}
  0
ENDSEC
  0
EOF
