  0
SECTION
  2
HEADER
  9
$ACADVER
  1
AC1009
  9
$INSBASE
 10
0.0
 20
0.0
 30
0.0
  9
$EXTMIN
 10
-24.39486830848
 20
-45.774783181127319
 30
0.0
  9
$EXTMAX
 10
76.548466647979751
 20
64.0
 30
0.0
  9
$LIMMIN
 10
0.0
 20
0.0
  9
$LIMMAX
 10
12.0
 20
9.0
  9
$ORTHOMODE
 70
     0
  9
$REGENMODE
 70
     1
  9
$FILLMODE
 70
     1
  9
$QTEXTMODE
 70
     0
  9
$MIRRTEXT
 70
     0
  9
$DRAGMODE
 70
     2
  9
$LTSCALE
 40
1.0
  9
$OSMODE
 70
   127
  9
$ATTMODE
 70
     1
  9
$TEXTSIZE
 40
0.2
  9
$TRACEWID
 40
0.05
  9
$TEXTSTYLE
  7
STANDARD
  9
$CLAYER
  8
0
  9
$CELTYPE
  6
BYLAYER
  9
$CECOLOR
 62
   256
  9
$DIMSCALE
 40
1.0
  9
$DIMASZ
 40
0.18
  9
$DIMEXO
 40
0.0625
  9
$DIMDLI
 40
0.38
  9
$DIMRND
 40
0.0
  9
$DIMDLE
 40
0.0
  9
$DIMEXE
 40
0.18
  9
$DIMTP
 40
0.0
  9
$DIMTM
 40
0.0
  9
$DIMTXT
 40
0.18
  9
$DIMCEN
 40
0.09
  9
$DIMTSZ
 40
0.0
  9
$DIMTOL
 70
     0
  9
$DIMLIM
 70
     0
  9
$DIMTIH
 70
     1
  9
$DIMTOH
 70
     1
  9
$DIMSE1
 70
     0
  9
$DIMSE2
 70
     0
  9
$DIMTAD
 70
     0
  9
$DIMZIN
 70
     0
  9
$DIMBLK
  1

  9
$DIMASO
 70
     1
  9
$DIMSHO
 70
     1
  9
$DIMPOST
  1

  9
$DIMAPOST
  1

  9
$DIMALT
 70
     0
  9
$DIMALTD
 70
     2
  9
$DIMALTF
 40
25.399999999999999
  9
$DIMLFAC
 40
1.0
  9
$DIMTOFL
 70
     0
  9
$DIMTVP
 40
0.0
  9
$DIMTIX
 70
     0
  9
$DIMSOXD
 70
     0
  9
$DIMSAH
 70
     0
  9
$DIMBLK1
  1

  9
$DIMBLK2
  1

  9
$DIMSTYLE
  2
STANDARD
  9
$DIMCLRD
 70
     0
  9
$DIMCLRE
 70
     0
  9
$DIMCLRT
 70
     0
  9
$DIMTFAC
 40
1.0
  9
$DIMGAP
 40
0.09
  9
$LUNITS
 70
     2
  9
$LUPREC
 70
     4
  9
$SKETCHINC
 40
0.1
  9
$FILLETRAD
 40
0.0
  9
$AUNITS
 70
     0
  9
$AUPREC
 70
     0
  9
$MENU
  1
.
  9
$ELEVATION
 40
0.0
  9
$PELEVATION
 40
0.0
  9
$THICKNESS
 40
0.0
  9
$LIMCHECK
 70
     0
  9
$BLIPMODE
 70
     0
  9
$CHAMFERA
 40
0.0
  9
$CHAMFERB
 40
0.0
  9
$SKPOLY
 70
     0
  9
$TDCREATE
 40
2457375.5603419328
  9
$TDUPDATE
 40
2457378.9878971879
  9
$TDINDWG
 40
0.0001029051
  9
$TDUSRTIMER
 40
0.0001029051
  9
$USRTIMER
 70
     1
  9
$ANGBASE
 50
0.0
  9
$ANGDIR
 70
     0
  9
$PDMODE
 70
     0
  9
$PDSIZE
 40
0.0
  9
$PLINEWID
 40
0.0
  9
$COORDS
 70
     2
  9
$SPLFRAME
 70
     0
  9
$SPLINETYPE
 70
     6
  9
$SPLINESEGS
 70
     8
  9
$ATTDIA
 70
     0
  9
$ATTREQ
 70
     0
  9
$HANDLING
 70
     1
  9
$HANDSEED
  5
1FF
  9
$SURFTAB1
 70
     6
  9
$SURFTAB2
 70
     6
  9
$SURFTYPE
 70
     6
  9
$SURFU
 70
     6
  9
$SURFV
 70
     6
  9
$UCSNAME
  2

  9
$UCSORG
 10
0.0
 20
0.0
 30
0.0
  9
$UCSXDIR
 10
1.0
 20
0.0
 30
0.0
  9
$UCSYDIR
 10
0.0
 20
1.0
 30
0.0
  9
$PUCSNAME
  2

  9
$PUCSORG
 10
0.0
 20
0.0
 30
0.0
  9
$PUCSXDIR
 10
1.0
 20
0.0
 30
0.0
  9
$PUCSYDIR
 10
0.0
 20
1.0
 30
0.0
  9
$USERI1
 70
     0
  9
$USERI2
 70
     0
  9
$USERI3
 70
     0
  9
$USERI4
 70
     0
  9
$USERI5
 70
     0
  9
$USERR1
 40
0.0
  9
$USERR2
 40
0.0
  9
$USERR3
 40
0.0
  9
$USERR4
 40
0.0
  9
$USERR5
 40
0.0
  9
$WORLDVIEW
 70
     1
  9
$SHADEDGE
 70
     3
  9
$SHADEDIF
 70
    70
  9
$TILEMODE
 70
     1
  9
$MAXACTVP
 70
    64
  9
$PLIMCHECK
 70
     0
  9
$PEXTMIN
 10
0.0
 20
0.0
 30
0.0
  9
$PEXTMAX
 10
0.0
 20
0.0
 30
0.0
  9
$PLIMMIN
 10
0.0
 20
0.0
  9
$PLIMMAX
 10
12.0
 20
9.0
  9
$UNITMODE
 70
     0
  9
$VISRETAIN
 70
     1
  9
$PLINEGEN
 70
     0
  9
$PSLTSCALE
 70
     1
  0
ENDSEC
  0
SECTION
  2
TABLES
  0
TABLE
  2
VPORT
 70
     1
  0
VPORT
  2
*ACTIVE
 70
     0
 10
0.0
 20
0.0
 11
1.0
 21
1.0
 12
97.820892247338662
 22
9.3384697476126632
 13
0.0
 23
0.0
 14
1.0
 24
1.0
 15
0.0
 25
0.0
 16
0.0
 26
0.0
 36
1.0
 17
0.0
 27
0.0
 37
0.0
 40
90.72758784658221
 41
1.7244755244755241
 42
50.0
 43
0.0
 44
0.0
 50
0.0
 51
0.0
 71
     0
 72
  1000
 73
     1
 74
     3
 75
     0
 76
     0
 77
     0
 78
     0
  0
ENDTAB
  0
TABLE
  2
LTYPE
 70
     1
  0
LTYPE
  2
CONTINUOUS
 70
     0
  3
Solid line
 72
    65
 73
     0
 40
0.0
  0
ENDTAB
  0
TABLE
  2
LAYER
 70
     5
  0
LAYER
  2
0
 70
     0
 62
     7
  6
CONTINUOUS
  0
LAYER
  2
DEFPOINTS
 70
     0
 62
     7
  6
CONTINUOUS
  0
ENDTAB
  0
TABLE
  2
STYLE
 70
     3
  0
STYLE
  2
STANDARD
 70
     0
 40
0.0
 41
1.0
 50
0.0
 71
     0
 42
0.2
  3
txt
  4

  0
STYLE
  2
ARIAL
 70
     0
 40
2.9505988023952101
 41
1.0
 50
0.0
 71
     0
 42
0.2
  3
txt
  4

  0
ENDTAB
  0
TABLE
  2
VIEW
 70
     0
  0
ENDTAB
  0
TABLE
  2
UCS
 70
     0
  0
ENDTAB
  0
TABLE
  2
APPID
 70
     5
  0
APPID
  2
ACAD
 70
     0
  0
APPID
  2
ACADANNOTATIVE
 70
     0
  0
APPID
  2
REVIT
 70
     0
  0
APPID
  2
ACAD_NAV_VCDISPLAY
 70
     0
  0
APPID
  2
ACAD_MLEADERVER
 70
     0
  0
ENDTAB
  0
TABLE
  2
DIMSTYLE
 70
     3
  0
DIMSTYLE
  2
STANDARD
 70
     0
  3

  4

  5

  6

  7

 40
1.0
 41
0.18
 42
0.0625
 43
0.38
 44
0.18
 45
0.0
 46
0.0
 47
0.0
 48
0.0
140
0.18
141
0.09
142
0.0
143
25.399999999999999
144
1.0
145
0.0
146
1.0
147
0.09
 71
     0
 72
     0
 73
     1
 74
     1
 75
     0
 76
     0
 77
     0
 78
     0
170
     0
171
     2
172
     0
173
     0
174
     0
175
     0
176
     0
177
     0
178
     0
  0
DIMSTYLE
  2
LINEAR
 70
     0
  3
<>
  4

  5

  6
OBLIQUE
  7
OBLIQUE
 40
304.80000000000001
 41
0.0065616797900262
 42
0.0065616797900262
 43
0.38
 44
0.0065616797900262
 45
0.01
 46
0.0
 47
0.0
 48
0.0
140
3.0
141
0.09
142
0.0
143
25.399999999999999
144
1.0
145
1.0
146
1.0
147
0.0065616797900262
 71
     0
 72
     0
 73
     0
 74
     0
 75
     0
 76
     0
 77
     1
 78
     0
170
     0
171
     2
172
     1
173
     1
174
     1
175
     0
176
     0
177
     0
178
     0
  0
ENDTAB
  0
ENDSEC
  0
SECTION
  2
BLOCKS
  0
BLOCK
  8
0
  2
$MODEL_SPACE
 70
     0
 10
0.0
 20
0.0
 30
0.0
  3
$MODEL_SPACE
  1

  0
ENDBLK
  5
72
  8
0
  0
BLOCK
 67
     1
  8
0
  2
$PAPER_SPACE
 70
     0
 10
0.0
 20
0.0
 30
0.0
  3
$PAPER_SPACE
  1

  0
ENDBLK
  5
76
 67
     1
  8
0
  0
BLOCK
  8
0
  2
_OBLIQUE
 70
     0
 10
0.0
 20
0.0
 30
0.0
  3
_OBLIQUE
  1

  0
LINE
  5
9E
  8
0
  6
BYBLOCK
 62
     0
 10
-0.5
 20
-0.5
 30
0.0
 11
0.5
 21
0.5
 31
0.0
  0
ENDBLK
  5
A0
  8
0
  0
BLOCK
  8
0
  2
DIMBLOCK1-REF__LEVEL
 70
     0
 10
0.0
 20
0.0
 30
0.0
  3
DIMBLOCK1-REF__LEVEL
  1

  0
LINE
  5
13A
  8
0
 62
     0
 10
-18.37221040067028
 20
63.0
 30
0.0
 11
-19.786423963043561
 21
63.0
 31
0.0
  0
LINE
  5
13B
  8
0
 62
     0
 10
-18.372210400670401
 20
-0.000000000000004
 30
0.0
 11
-19.786423963043571
 21
-0.0000000000000036
 31
0.0
  0
LINE
  5
13C
  8
0
 62
     0
 10
-17.786423963043561
 20
63.0
 30
0.0
 11
-17.786423963043571
 21
-0.0000000000000042
 31
0.0
  0
INSERT
  5
13D
  8
0
 62
     0
  2
_OBLIQUE
 10
-17.786423963043561
 20
63.0
 30
0.0
 41
2.0
 42
2.0
 43
2.0
 50
90.0
  0
INSERT
  5
13E
  8
0
 62
     0
  2
_OBLIQUE
 10
-17.786423963043571
 20
-0.0000000000000042
 30
0.0
 41
2.0
 42
2.0
 43
2.0
 50
270.0
  0
INSERT
  5
13F
  8
0
  2
*U9
 10
0.0
 20
0.0
 30
0.0
  0
POINT
  5
140
  8
DEFPOINTS
 62
     0
 10
-16.37221040067028
 20
63.0
 30
0.0
  0
POINT
  5
141
  8
DEFPOINTS
 62
     0
 10
-16.372210400670401
 20
-0.0000000000000046
 30
0.0
  0
POINT
  5
142
  8
DEFPOINTS
 62
     0
 10
-17.786423963043571
 20
-0.0000000000000042
 30
0.0
  0
ENDBLK
  5
9B
  8
0
  0
BLOCK
  8
0
  2
DIMBLOCK2-REF__LEVEL
 70
     0
 10
0.0
 20
0.0
 30
0.0
  3
DIMBLOCK2-REF__LEVEL
  1

  0
LINE
  5
131
  8
0
 62
     0
 10
0.5176380902050531
 20
1.931851652578146
 30
0.0
 11
2.7131804096027219
 21
10.12572713873767
 31
0.0
  0
LINE
  5
132
  8
0
 62
     0
 10
65.234668451572489
 20
-15.409024369291121
 30
0.0
 11
67.430210770970163
 21
-7.2151488831315911
 31
0.0
  0
LINE
  5
133
  8
0
 62
     0
 10
2.1955423193976689
 20
8.1938754861595342
 30
0.0
 11
66.912572680765109
 21
-9.1470005357097222
 31
0.0
  0
INSERT
  5
134
  8
0
 62
     0
  2
_OBLIQUE
 10
2.1955423193976689
 20
8.1938754861595342
 30
0.0
 41
2.0
 42
2.0
 43
2.0
 50
164.9999999999996
  0
INSERT
  5
135
  8
0
 62
     0
  2
_OBLIQUE
 10
66.912572680765109
 20
-9.1470005357097222
 30
0.0
 41
2.0
 42
2.0
 43
2.0
 50
344.99999999999972
  0
INSERT
  5
136
  8
0
  2
*U8
 10
0.0
 20
0.0
 30
0.0
  0
POINT
  5
137
  8
DEFPOINTS
 62
     0
 10
0.0
 20
0.0000000000000127
 30
0.0
  0
POINT
  5
138
  8
DEFPOINTS
 62
     0
 10
64.717030361367435
 20
-17.340876021869249
 30
0.0
  0
POINT
  5
139
  8
DEFPOINTS
 62
     0
 10
66.912572680765109
 20
-9.1470005357097222
 30
0.0
  0
ENDBLK
  5
BC
  8
0
  0
BLOCK
  8
0
  2
DIMBLOCK3-REF__LEVEL
 70
     0
 10
0.0
 20
0.0
 30
0.0
  3
DIMBLOCK3-REF__LEVEL
  1

  0
LINE
  5
128
  8
0
 62
     0
 10
66.717030361367449
 20
-17.340876021869249
 30
0.0
 11
76.548466647979737
 21
-17.34087602186926
 31
0.0
  0
LINE
  5
129
  8
0
 62
     0
 10
66.717030361367435
 20
-32.340876021869263
 30
0.0
 11
76.548466647979723
 21
-32.340876021869263
 31
0.0
  0
LINE
  5
12A
  8
0
 62
     0
 10
74.548466647979737
 20
-17.34087602186926
 30
0.0
 11
74.548466647979723
 21
-32.340876021869263
 31
0.0
  0
INSERT
  5
12B
  8
0
 62
     0
  2
_OBLIQUE
 10
74.548466647979737
 20
-17.34087602186926
 30
0.0
 41
2.0
 42
2.0
 43
2.0
 50
90.0
  0
INSERT
  5
12C
  8
0
 62
     0
  2
_OBLIQUE
 10
74.548466647979723
 20
-32.340876021869263
 30
0.0
 41
2.0
 42
2.0
 43
2.0
 50
270.0
  0
INSERT
  5
12D
  8
0
  2
*U7
 10
0.0
 20
0.0
 30
0.0
  0
POINT
  5
12E
  8
DEFPOINTS
 62
     0
 10
64.717030361367435
 20
-17.340876021869249
 30
0.0
  0
POINT
  5
12F
  8
DEFPOINTS
 62
     0
 10
64.717030361367435
 20
-32.340876021869263
 30
0.0
  0
POINT
  5
130
  8
DEFPOINTS
 62
     0
 10
74.548466647979723
 20
-32.340876021869263
 30
0.0
  0
ENDBLK
  5
D6
  8
0
  0
BLOCK
  8
0
  2
DIMBLOCK4-REF__LEVEL
 70
     0
 10
0.0
 20
0.0
 30
0.0
  3
DIMBLOCK4-REF__LEVEL
  1

  0
LINE
  5
11D
  8
0
 62
     0
 10
63.302816798994328
 20
-33.755089584242342
 30
0.0
 11
55.270379784394692
 21
-41.787526598841943
 31
0.0
  0
LINE
  5
11E
  8
0
 62
     0
 10
66.838350704927052
 20
-37.290623490175093
 30
0.0
 11
58.805913690327422
 21
-45.323060504774681
 31
0.0
  0
LINE
  5
11F
  8
0
 62
     0
 10
56.684593346767791
 20
-40.373313036468851
 30
0.0
 11
55.270379784394699
 21
-38.959099474095751
 31
0.0
  0
LINE
  5
120
  8
0
 62
     0
 10
60.220127252700522
 20
-43.908846942401588
 30
0.0
 11
61.634340815073607
 21
-45.323060504774681
 31
0.0
  0
LINE
  5
121
  8
0
 62
     0
 10
56.684593346767791
 20
-40.373313036468851
 30
0.0
 11
60.220127252700522
 21
-43.908846942401588
 31
0.0
  0
INSERT
  5
122
  8
0
 62
     0
  2
_OBLIQUE
 10
56.684593346767791
 20
-40.373313036468851
 30
0.0
 41
2.0
 42
2.0
 43
2.0
 50
314.99999999999989
  0
INSERT
  5
123
  8
0
 62
     0
  2
_OBLIQUE
 10
60.220127252700522
 20
-43.908846942401588
 30
0.0
 41
2.0
 42
2.0
 43
2.0
 50
134.99999999999989
  0
INSERT
  5
124
  8
0
  2
*U6
 10
0.0
 20
0.0
 30
0.0
  0
POINT
  5
125
  8
DEFPOINTS
 62
     0
 10
64.717030361367435
 20
-32.340876021869249
 30
0.0
  0
POINT
  5
126
  8
DEFPOINTS
 62
     0
 10
68.252564267300144
 20
-35.876409927802001
 30
0.0
  0
POINT
  5
127
  8
DEFPOINTS
 62
     0
 10
60.220127252700522
 20
-43.908846942401588
 30
0.0
  0
ENDBLK
  5
F0
  8
0
  0
BLOCK
  8
0
  2
*U6
 70
     1
 10
0.0
 20
0.0
 30
0.0
  3
*U6
  1

  0
TEXT
  5
1F0
  8
0
 62
     0
 10
57.07926709268903
 20
-37.859861327754977
 30
0.0
 40
2.9505988023952101
  1
5.00
 50
314.99999999999989
  7
ARIAL
  0
ENDBLK
  5
1F2
  8
0
  0
BLOCK
  8
0
  2
*U7
 70
     1
 10
0.0
 20
0.0
 30
0.0
  3
*U7
  1

  0
TEXT
  5
1F4
  8
0
 62
     0
 10
72.492111418466024
 20
-30.124178788777449
 30
0.0
 40
2.9505988023952101
  1
15.00
 50
90.0
  7
ARIAL
  0
ENDBLK
  5
1F6
  8
0
  0
BLOCK
  8
0
  2
*U8
 70
     1
 10
0.0
 20
0.0
 30
0.0
  3
*U8
  1

  0
TEXT
  5
1F8
  8
0
 62
     0
 10
30.12492255378821
 20
2.8391161948298862
 30
0.0
 40
2.9505988023952101
  1
67.00
 50
344.99999999999972
  7
ARIAL
  0
ENDBLK
  5
1FA
  8
0
  0
BLOCK
  8
0
  2
*U9
 70
     1
 10
0.0
 20
0.0
 30
0.0
  3
*U9
  1

  0
TEXT
  5
1FC
  8
0
 62
     0
 10
-19.844791879325602
 20
26.363623367181049
 30
0.0
 40
2.9505988023952101
  1
63.00
 50
90.0
  7
ARIAL
  0
ENDBLK
  5
1FE
  8
0
  0
ENDSEC
  0
SECTION
  2
ENTITIES
  0
LINE
  5
88
  8
0
 10
0.0
 20
0.000000000000013
 30
0.0
 11
0.0000000000001043
 21
62.999999999999943
 31
0.0
1001
REVIT
1002
{
1070
     1
1000
246622
1002
}
1002
{
1070
     2
1000
-2002000
1002
}
1002
{
1070
     3
1000
206783
1002
}
  0
LINE
  5
89
  8
0
 10
0.0000000000000011
 20
0.0000000000000127
 30
0.0
 11
64.717030361367435
 21
-17.340876021869249
 31
0.0
1001
REVIT
1002
{
1070
     1
1000
246627
1002
}
1002
{
1070
     2
1000
-2002000
1002
}
1002
{
1070
     3
1000
206783
1002
}
  0
LINE
  5
8A
  8
0
 10
64.717030361367435
 20
-17.340876021869249
 30
0.0
 11
64.717030361367435
 21
-32.340876021869263
 31
0.0
1001
REVIT
1002
{
1070
     1
1000
246631
1002
}
1002
{
1070
     2
1000
-2002000
1002
}
1002
{
1070
     3
1000
206783
1002
}
  0
LINE
  5
8B
  8
0
 10
64.717030361367435
 20
-32.340876021869263
 30
0.0
 11
68.252564267300158
 21
-35.876409927802001
 31
0.0
1001
REVIT
1002
{
1070
     1
1000
246635
1002
}
1002
{
1070
     2
1000
-2002000
1002
}
1002
{
1070
     3
1000
206783
1002
}
  0
ENDSEC
  0
EOF
