  0
SECTION
  2
HEADER
  9
$ACADVER
  1
AC1009
  9
$INSBASE
 10
0.0
 20
0.0
 30
0.0
  9
$EXTMIN
 10
-80.913564909371104
 20
-22.629590330857582
 30
0.0
  9
$EXTMAX
 10
81.731286899074448
 20
9.3367384365685862
 30
0.0
  9
$LIMMIN
 10
0.0
 20
0.0
  9
$LIMMAX
 10
12.0
 20
9.0
  9
$ORTHOMODE
 70
     0
  9
$REGENMODE
 70
     1
  9
$FILLMODE
 70
     1
  9
$QTEXTMODE
 70
     0
  9
$MIRRTEXT
 70
     0
  9
$DRAGMODE
 70
     2
  9
$LTSCALE
 40
1.0
  9
$OSMODE
 70
   127
  9
$ATTMODE
 70
     1
  9
$TEXTSIZE
 40
0.2
  9
$TRACEWID
 40
0.05
  9
$TEXTSTYLE
  7
STANDARD
  9
$CLAYER
  8
0
  9
$CELTYPE
  6
BYLAYER
  9
$CECOLOR
 62
   256
  9
$DIMSCALE
 40
1.0
  9
$DIMASZ
 40
0.18
  9
$DIMEXO
 40
0.0625
  9
$DIMDLI
 40
0.38
  9
$DIMRND
 40
0.0
  9
$DIMDLE
 40
0.0
  9
$DIMEXE
 40
0.18
  9
$DIMTP
 40
0.0
  9
$DIMTM
 40
0.0
  9
$DIMTXT
 40
0.18
  9
$DIMCEN
 40
0.09
  9
$DIMTSZ
 40
0.0
  9
$DIMTOL
 70
     0
  9
$DIMLIM
 70
     0
  9
$DIMTIH
 70
     1
  9
$DIMTOH
 70
     1
  9
$DIMSE1
 70
     0
  9
$DIMSE2
 70
     0
  9
$DIMTAD
 70
     0
  9
$DIMZIN
 70
     0
  9
$DIMBLK
  1

  9
$DIMASO
 70
     1
  9
$DIMSHO
 70
     1
  9
$DIMPOST
  1

  9
$DIMAPOST
  1

  9
$DIMALT
 70
     0
  9
$DIMALTD
 70
     2
  9
$DIMALTF
 40
25.399999999999999
  9
$DIMLFAC
 40
1.0
  9
$DIMTOFL
 70
     0
  9
$DIMTVP
 40
0.0
  9
$DIMTIX
 70
     0
  9
$DIMSOXD
 70
     0
  9
$DIMSAH
 70
     0
  9
$DIMBLK1
  1

  9
$DIMBLK2
  1

  9
$DIMSTYLE
  2
STANDARD
  9
$DIMCLRD
 70
     0
  9
$DIMCLRE
 70
     0
  9
$DIMCLRT
 70
     0
  9
$DIMTFAC
 40
1.0
  9
$DIMGAP
 40
0.09
  9
$LUNITS
 70
     2
  9
$LUPREC
 70
     4
  9
$SKETCHINC
 40
0.1
  9
$FILLETRAD
 40
0.0
  9
$AUNITS
 70
     0
  9
$AUPREC
 70
     0
  9
$MENU
  1
.
  9
$ELEVATION
 40
0.0
  9
$PELEVATION
 40
0.0
  9
$THICKNESS
 40
0.0
  9
$LIMCHECK
 70
     0
  9
$BLIPMODE
 70
     0
  9
$CHAMFERA
 40
0.0
  9
$CHAMFERB
 40
0.0
  9
$SKPOLY
 70
     0
  9
$TDCREATE
 40
2457375.5629969328
  9
$TDUPDATE
 40
2457378.985738588
  9
$TDINDWG
 40
0.0001019792
  9
$TDUSRTIMER
 40
0.0001019792
  9
$USRTIMER
 70
     1
  9
$ANGBASE
 50
0.0
  9
$ANGDIR
 70
     0
  9
$PDMODE
 70
     0
  9
$PDSIZE
 40
0.0
  9
$PLINEWID
 40
0.0
  9
$COORDS
 70
     2
  9
$SPLFRAME
 70
     0
  9
$SPLINETYPE
 70
     6
  9
$SPLINESEGS
 70
     8
  9
$ATTDIA
 70
     0
  9
$ATTREQ
 70
     0
  9
$HANDLING
 70
     1
  9
$HANDSEED
  5
22B
  9
$SURFTAB1
 70
     6
  9
$SURFTAB2
 70
     6
  9
$SURFTYPE
 70
     6
  9
$SURFU
 70
     6
  9
$SURFV
 70
     6
  9
$UCSNAME
  2

  9
$UCSORG
 10
0.0
 20
0.0
 30
0.0
  9
$UCSXDIR
 10
1.0
 20
0.0
 30
0.0
  9
$UCSYDIR
 10
0.0
 20
1.0
 30
0.0
  9
$PUCSNAME
  2

  9
$PUCSORG
 10
0.0
 20
0.0
 30
0.0
  9
$PUCSXDIR
 10
1.0
 20
0.0
 30
0.0
  9
$PUCSYDIR
 10
0.0
 20
1.0
 30
0.0
  9
$USERI1
 70
     0
  9
$USERI2
 70
     0
  9
$USERI3
 70
     0
  9
$USERI4
 70
     0
  9
$USERI5
 70
     0
  9
$USERR1
 40
0.0
  9
$USERR2
 40
0.0
  9
$USERR3
 40
0.0
  9
$USERR4
 40
0.0
  9
$USERR5
 40
0.0
  9
$WORLDVIEW
 70
     1
  9
$SHADEDGE
 70
     3
  9
$SHADEDIF
 70
    70
  9
$TILEMODE
 70
     1
  9
$MAXACTVP
 70
    64
  9
$PLIMCHECK
 70
     0
  9
$PEXTMIN
 10
0.0
 20
0.0
 30
0.0
  9
$PEXTMAX
 10
0.0
 20
0.0
 30
0.0
  9
$PLIMMIN
 10
0.0
 20
0.0
  9
$PLIMMAX
 10
12.0
 20
9.0
  9
$UNITMODE
 70
     0
  9
$VISRETAIN
 70
     1
  9
$PLINEGEN
 70
     0
  9
$PSLTSCALE
 70
     1
  0
ENDSEC
  0
SECTION
  2
TABLES
  0
TABLE
  2
VPORT
 70
     1
  0
VPORT
  2
*ACTIVE
 70
     0
 10
0.0
 20
0.0
 11
1.0
 21
1.0
 12
0.4088609948516507
 22
14.520492590822791
 13
0.0
 23
0.0
 14
1.0
 24
1.0
 15
0.0
 25
0.0
 16
0.0
 26
0.0
 36
1.0
 17
0.0
 27
0.0
 37
0.0
 40
60.00215890031258
 41
1.7244755244755241
 42
50.0
 43
0.0
 44
0.0
 50
0.0
 51
0.0
 71
     0
 72
  1000
 73
     1
 74
     3
 75
     0
 76
     0
 77
     0
 78
     0
  0
ENDTAB
  0
TABLE
  2
LTYPE
 70
     1
  0
LTYPE
  2
CONTINUOUS
 70
     0
  3
Solid line
 72
    65
 73
     0
 40
0.0
  0
ENDTAB
  0
TABLE
  2
LAYER
 70
     5
  0
LAYER
  2
0
 70
     0
 62
     7
  6
CONTINUOUS
  0
LAYER
  2
DEFPOINTS
 70
     0
 62
     7
  6
CONTINUOUS
  0
ENDTAB
  0
TABLE
  2
STYLE
 70
     3
  0
STYLE
  2
STANDARD
 70
     0
 40
0.0
 41
1.0
 50
0.0
 71
     0
 42
0.2
  3
txt
  4

  0
STYLE
  2
ARIAL
 70
     0
 40
2.9505988023952101
 41
1.0
 50
0.0
 71
     0
 42
0.2
  3
txt
  4

  0
ENDTAB
  0
TABLE
  2
VIEW
 70
     0
  0
ENDTAB
  0
TABLE
  2
UCS
 70
     0
  0
ENDTAB
  0
TABLE
  2
APPID
 70
     5
  0
APPID
  2
ACAD
 70
     0
  0
APPID
  2
ACADANNOTATIVE
 70
     0
  0
APPID
  2
REVIT
 70
     0
  0
APPID
  2
ACAD_NAV_VCDISPLAY
 70
     0
  0
APPID
  2
ACAD_MLEADERVER
 70
     0
  0
ENDTAB
  0
TABLE
  2
DIMSTYLE
 70
     3
  0
DIMSTYLE
  2
STANDARD
 70
     0
  3

  4

  5

  6

  7

 40
1.0
 41
0.18
 42
0.0625
 43
0.38
 44
0.18
 45
0.0
 46
0.0
 47
0.0
 48
0.0
140
0.18
141
0.09
142
0.0
143
25.399999999999999
144
1.0
145
0.0
146
1.0
147
0.09
 71
     0
 72
     0
 73
     1
 74
     1
 75
     0
 76
     0
 77
     0
 78
     0
170
     0
171
     2
172
     0
173
     0
174
     0
175
     0
176
     0
177
     0
178
     0
  0
DIMSTYLE
  2
LINEAR
 70
     0
  3
<>
  4

  5

  6
OBLIQUE
  7
OBLIQUE
 40
304.80000000000001
 41
0.0065616797900262
 42
0.0065616797900262
 43
0.38
 44
0.0065616797900262
 45
0.01
 46
0.0
 47
0.0
 48
0.0
140
3.0
141
0.09
142
0.0
143
25.399999999999999
144
1.0
145
1.0
146
1.0
147
0.0065616797900262
 71
     0
 72
     0
 73
     0
 74
     0
 75
     0
 76
     0
 77
     1
 78
     0
170
     0
171
     2
172
     1
173
     1
174
     1
175
     0
176
     0
177
     0
178
     0
  0
ENDTAB
  0
ENDSEC
  0
SECTION
  2
BLOCKS
  0
BLOCK
  8
0
  2
$MODEL_SPACE
 70
     0
 10
0.0
 20
0.0
 30
0.0
  3
$MODEL_SPACE
  1

  0
ENDBLK
  5
72
  8
0
  0
BLOCK
 67
     1
  8
0
  2
$PAPER_SPACE
 70
     0
 10
0.0
 20
0.0
 30
0.0
  3
$PAPER_SPACE
  1

  0
ENDBLK
  5
76
 67
     1
  8
0
  0
BLOCK
  8
0
  2
_OBLIQUE
 70
     0
 10
0.0
 20
0.0
 30
0.0
  3
_OBLIQUE
  1

  0
LINE
  5
9F
  8
0
  6
BYBLOCK
 62
     0
 10
-0.5
 20
-0.5
 30
0.0
 11
0.5
 21
0.5
 31
0.0
  0
ENDBLK
  5
A1
  8
0
  0
BLOCK
  8
0
  2
DIMBLOCK1-REF__LEVEL
 70
     0
 10
0.0
 20
0.0
 30
0.0
  3
DIMBLOCK1-REF__LEVEL
  1

  0
LINE
  5
162
  8
0
 62
     0
 10
-45.999999999999829
 20
-21.215376768484621
 30
0.0
 11
-45.999999999999829
 21
-22.629590330857582
 31
0.0
  0
LINE
  5
163
  8
0
 62
     0
 10
45.999999999999822
 20
-21.215376768484489
 30
0.0
 11
45.999999999999822
 21
-22.629590330857582
 31
0.0
  0
LINE
  5
164
  8
0
 62
     0
 10
-45.999999999999829
 20
-20.629590330857582
 30
0.0
 11
45.999999999999822
 21
-20.629590330857582
 31
0.0
  0
INSERT
  5
165
  8
0
 62
     0
  2
_OBLIQUE
 10
-45.999999999999829
 20
-20.629590330857582
 30
0.0
 41
2.0
 42
2.0
 43
2.0
 50
180.0
  0
INSERT
  5
166
  8
0
 62
     0
  2
_OBLIQUE
 10
45.999999999999822
 20
-20.629590330857582
 30
0.0
 41
2.0
 42
2.0
 43
2.0
  0
INSERT
  5
167
  8
0
  2
*U11
 10
0.0
 20
0.0
 30
0.0
  0
POINT
  5
168
  8
DEFPOINTS
 62
     0
 10
-45.999999999999829
 20
-19.215376768484621
 30
0.0
  0
POINT
  5
169
  8
DEFPOINTS
 62
     0
 10
45.999999999999822
 20
-19.215376768484479
 30
0.0
  0
POINT
  5
16A
  8
DEFPOINTS
 62
     0
 10
45.999999999999822
 20
-20.629590330857582
 30
0.0
  0
ENDBLK
  5
9C
  8
0
  0
BLOCK
  8
0
  2
DIMBLOCK2-REF__LEVEL
 70
     0
 10
0.0
 20
0.0
 30
0.0
  3
DIMBLOCK2-REF__LEVEL
  1

  0
LINE
  5
157
  8
0
 62
     0
 10
68.515743264589446
 20
-6.132423248237493
 30
0.0
 11
76.37784431457257
 21
-1.408396344487421
 31
0.0
  0
LINE
  5
158
  8
0
 62
     0
 10
64.912507541361947
 20
-0.135631963997497
 30
0.0
 11
72.774608591345071
 21
4.5883949397525754
 31
0.0
  0
LINE
  5
159
  8
0
 62
     0
 10
74.663509713168338
 20
-2.4384724943075322
 30
0.0
 11
75.693585862988442
 21
-4.1528070957117569
 31
0.0
  0
LINE
  5
15A
  8
0
 62
     0
 10
71.060273989940839
 20
3.5583187899324642
 30
0.0
 11
70.030197840120735
 21
5.2726533913366893
 31
0.0
  0
LINE
  5
15B
  8
0
 62
     0
 10
74.663509713168338
 20
-2.4384724943075322
 30
0.0
 11
71.060273989940839
 21
3.5583187899324642
 31
0.0
  0
INSERT
  5
15C
  8
0
 62
     0
  2
_OBLIQUE
 10
74.663509713168338
 20
-2.4384724943075322
 30
0.0
 41
2.0
 42
2.0
 43
2.0
 50
120.9999999999998
  0
INSERT
  5
15D
  8
0
 62
     0
  2
_OBLIQUE
 10
71.060273989940839
 20
3.5583187899324642
 30
0.0
 41
2.0
 42
2.0
 43
2.0
 50
300.99999999999977
  0
INSERT
  5
15E
  8
0
  2
*U10
 10
0.0
 20
0.0
 30
0.0
  0
POINT
  5
15F
  8
DEFPOINTS
 62
     0
 10
66.801408663185214
 20
-7.1624993980575971
 30
0.0
  0
POINT
  5
160
  8
DEFPOINTS
 62
     0
 10
63.198172939957708
 20
-1.1657081138176011
 30
0.0
  0
POINT
  5
161
  8
DEFPOINTS
 62
     0
 10
71.060273989940839
 20
3.5583187899324642
 30
0.0
  0
ENDBLK
  5
BD
  8
0
  0
BLOCK
  8
0
  2
DIMBLOCK3-REF__LEVEL
 70
     0
 10
0.0
 20
0.0
 30
0.0
  3
DIMBLOCK3-REF__LEVEL
  1

  0
LINE
  5
14E
  8
0
 62
     0
 10
66.150272354270896
 20
-9.0535365492562221
 30
0.0
 11
62.221226546902997
 21
-20.464314121900522
 31
0.0
  0
LINE
  5
14F
  8
0
 62
     0
 10
45.348863691086059
 20
-1.89103715119875
 30
0.0
 11
41.419817883718167
 21
-13.301814723843041
 31
0.0
  0
LINE
  5
150
  8
0
 62
     0
 10
62.872362855817329
 20
-18.57327697070189
 30
0.0
 11
42.070954192632492
 21
-11.41077757264441
 31
0.0
  0
INSERT
  5
151
  8
0
 62
     0
  2
_OBLIQUE
 10
62.872362855817329
 20
-18.57327697070189
 30
0.0
 41
2.0
 42
2.0
 43
2.0
 50
340.99999999999977
  0
INSERT
  5
152
  8
0
 62
     0
  2
_OBLIQUE
 10
42.070954192632492
 20
-11.41077757264441
 30
0.0
 41
2.0
 42
2.0
 43
2.0
 50
160.9999999999998
  0
INSERT
  5
153
  8
0
  2
*U9
 10
0.0
 20
0.0
 30
0.0
  0
POINT
  5
154
  8
DEFPOINTS
 62
     0
 10
66.801408663185214
 20
-7.1624993980575899
 30
0.0
  0
POINT
  5
155
  8
DEFPOINTS
 62
     0
 10
46.000000000000391
 20
-0.000000000000119
 30
0.0
  0
POINT
  5
156
  8
DEFPOINTS
 62
     0
 10
42.070954192632492
 20
-11.41077757264441
 30
0.0
  0
ENDBLK
  5
D9
  8
0
  0
BLOCK
  8
0
  2
DIMBLOCK4-REF__LEVEL
 70
     0
 10
0.0
 20
0.0
 30
0.0
  3
DIMBLOCK4-REF__LEVEL
  1

  0
LINE
  5
143
  8
0
 62
     0
 10
-68.515743264589446
 20
-6.1324232482374859
 30
0.0
 11
-76.37784431457257
 21
-1.4083963444874279
 31
0.0
  0
LINE
  5
144
  8
0
 62
     0
 10
-64.912507541361947
 20
-0.135631963997497
 30
0.0
 11
-72.774608591345071
 21
4.5883949397525639
 31
0.0
  0
LINE
  5
145
  8
0
 62
     0
 10
-74.663509713168338
 20
-2.4384724943075322
 30
0.0
 11
-75.693585862988442
 21
-4.1528070957117569
 31
0.0
  0
LINE
  5
146
  8
0
 62
     0
 10
-71.060273989940839
 20
3.5583187899324602
 30
0.0
 11
-70.030197840120735
 21
5.2726533913366893
 31
0.0
  0
LINE
  5
147
  8
0
 62
     0
 10
-74.663509713168338
 20
-2.4384724943075322
 30
0.0
 11
-71.060273989940839
 21
3.5583187899324602
 31
0.0
  0
INSERT
  5
148
  8
0
 62
     0
  2
_OBLIQUE
 10
-74.663509713168338
 20
-2.4384724943075322
 30
0.0
 41
2.0
 42
2.0
 43
2.0
 50
59.000000000000107
  0
INSERT
  5
149
  8
0
 62
     0
  2
_OBLIQUE
 10
-71.060273989940839
 20
3.5583187899324602
 30
0.0
 41
2.0
 42
2.0
 43
2.0
 50
239.00000000000011
  0
INSERT
  5
14A
  8
0
  2
*U8
 10
0.0
 20
0.0
 30
0.0
  0
POINT
  5
14B
  8
DEFPOINTS
 62
     0
 10
-66.801408663185214
 20
-7.1624993980575899
 30
0.0
  0
POINT
  5
14C
  8
DEFPOINTS
 62
     0
 10
-63.198172939957722
 20
-1.1657081138176011
 30
0.0
  0
POINT
  5
14D
  8
DEFPOINTS
 62
     0
 10
-71.060273989940839
 20
3.5583187899324602
 30
0.0
  0
ENDBLK
  5
F3
  8
0
  0
BLOCK
  8
0
  2
DIMBLOCK5-REF__LEVEL
 70
     0
 10
0.0
 20
0.0
 30
0.0
  3
DIMBLOCK5-REF__LEVEL
  1

  0
LINE
  5
13A
  8
0
 62
     0
 10
-66.150272354270911
 20
-9.0535365492562221
 30
0.0
 11
-62.221226546902997
 21
-20.464314121900522
 31
0.0
  0
LINE
  5
13B
  8
0
 62
     0
 10
-45.348863691085292
 20
-1.891037151198482
 30
0.0
 11
-41.419817883717393
 21
-13.301814723842771
 31
0.0
  0
LINE
  5
13C
  8
0
 62
     0
 10
-62.872362855817329
 20
-18.57327697070189
 30
0.0
 11
-42.070954192631717
 21
-11.41077757264414
 31
0.0
  0
INSERT
  5
13D
  8
0
 62
     0
  2
_OBLIQUE
 10
-62.872362855817329
 20
-18.57327697070189
 30
0.0
 41
2.0
 42
2.0
 43
2.0
 50
199.0000000000002
  0
INSERT
  5
13E
  8
0
 62
     0
  2
_OBLIQUE
 10
-42.070954192631717
 20
-11.41077757264414
 30
0.0
 41
2.0
 42
2.0
 43
2.0
 50
19.00000000000021
  0
INSERT
  5
13F
  8
0
  2
*U7
 10
0.0
 20
0.0
 30
0.0
  0
POINT
  5
140
  8
DEFPOINTS
 62
     0
 10
-66.801408663185228
 20
-7.1624993980575899
 30
0.0
  0
POINT
  5
141
  8
DEFPOINTS
 62
     0
 10
-45.999999999999609
 20
0.0000000000001492
 30
0.0
  0
POINT
  5
142
  8
DEFPOINTS
 62
     0
 10
-42.070954192631717
 20
-11.41077757264414
 30
0.0
  0
ENDBLK
  5
10F
  8
0
  0
BLOCK
  8
0
  2
*U7
 70
     1
 10
0.0
 20
0.0
 30
0.0
  3
*U7
  1

  0
TEXT
  5
218
  8
0
 62
     0
 10
-57.981506040636361
 20
-14.71437609798908
 30
0.0
 40
2.9505988023952101
  1
22.00
 50
19.00000000000021
  7
ARIAL
  0
ENDBLK
  5
21A
  8
0
  0
BLOCK
  8
0
  2
*U8
 70
     1
 10
0.0
 20
0.0
 30
0.0
  3
*U8
  1

  0
TEXT
  5
21C
  8
0
 62
     0
 10
-76.689978372663944
 20
-1.8184551125786941
 30
0.0
 40
2.9505988023952101
  1
7.00
 50
59.000000000000163
  7
ARIAL
  0
ENDBLK
  5
21E
  8
0
  0
BLOCK
  8
0
  2
*U9
 70
     1
 10
0.0
 20
0.0
 30
0.0
  3
*U9
  1

  0
TEXT
  5
220
  8
0
 62
     0
 10
48.300778561775282
 20
-11.38103431028512
 30
0.0
 40
2.9505988023952101
  1
22.00
 50
340.99999999999977
  7
ARIAL
  0
ENDBLK
  5
222
  8
0
  0
BLOCK
  8
0
  2
*U10
 70
     1
 10
0.0
 20
0.0
 30
0.0
  3
*U10
  1

  0
TEXT
  5
224
  8
0
 62
     0
 10
72.559086253179075
 20
5.0565038856835178
 30
0.0
 40
2.9505988023952101
  1
7.00
 50
300.99999999999977
  7
ARIAL
  0
ENDBLK
  5
226
  8
0
  0
BLOCK
  8
0
  2
*U11
 70
     1
 10
0.0
 20
0.0
 30
0.0
  3
*U11
  1

  0
TEXT
  5
228
  8
0
 62
     0
 10
-5.1444273798923339
 20
-18.573235101343901
 30
0.0
 40
2.9505988023952101
  1
92.00
  7
ARIAL
  0
ENDBLK
  5
22A
  8
0
  0
ENDSEC
  0
SECTION
  2
ENTITIES
  0
LINE
  5
88
  8
0
 10
-45.999999999999638
 20
0.000000000000148
 30
0.0
 11
46.000000000000448
 21
-0.000000000000148
 31
0.0
1001
REVIT
1002
{
1070
     1
1000
256151
1002
}
1002
{
1070
     2
1000
-2002000
1002
}
1002
{
1070
     3
1000
206783
1002
}
  0
LINE
  5
89
  8
0
 10
46.000000000000391
 20
-0.0000000000001181
 30
0.0
 11
66.801408663185214
 21
-7.1624993980575882
 31
0.0
1001
REVIT
1002
{
1070
     1
1000
256155
1002
}
1002
{
1070
     2
1000
-2002000
1002
}
1002
{
1070
     3
1000
206783
1002
}
  0
LINE
  5
8A
  8
0
 10
66.801408663185214
 20
-7.1624993980575891
 30
0.0
 11
63.198172939957722
 21
-1.165708113817598
 31
0.0
1001
REVIT
1002
{
1070
     1
1000
256156
1002
}
1002
{
1070
     2
1000
-2002000
1002
}
1002
{
1070
     3
1000
206783
1002
}
  0
LINE
  5
8B
  8
0
 10
-45.999999999999609
 20
0.0000000000001476
 30
0.0
 11
-66.801408663185214
 21
-7.1624993980575882
 31
0.0
1001
REVIT
1002
{
1070
     1
1000
256159
1002
}
1002
{
1070
     2
1000
-2002000
1002
}
1002
{
1070
     3
1000
206783
1002
}
  0
LINE
  5
8C
  8
0
 10
-66.801408663185214
 20
-7.1624993980575882
 30
0.0
 11
-63.198172939957722
 21
-1.165708113817598
 31
0.0
1001
REVIT
1002
{
1070
     1
1000
256160
1002
}
1002
{
1070
     2
1000
-2002000
1002
}
1002
{
1070
     3
1000
206783
1002
}
  0
ENDSEC
  0
EOF
