  0
SECTION
  2
HEADER
  9
$ACADVER
  1
AC1009
  9
$INSBASE
 10
0.0
 20
0.0
 30
0.0
  9
$EXTMIN
 10
-28.405129643462772
 20
-93.598928570855222
 30
0.0
  9
$EXTMAX
 10
72.03149790453989
 20
70.000000000000185
 30
0.0
  9
$LIMMIN
 10
0.0
 20
0.0
  9
$LIMMAX
 10
12.0
 20
9.0
  9
$ORTHOMODE
 70
     0
  9
$REGENMODE
 70
     1
  9
$FILLMODE
 70
     1
  9
$QTEXTMODE
 70
     0
  9
$MIRRTEXT
 70
     0
  9
$DRAGMODE
 70
     2
  9
$LTSCALE
 40
1.0
  9
$OSMODE
 70
   127
  9
$ATTMODE
 70
     1
  9
$TEXTSIZE
 40
0.2
  9
$TRACEWID
 40
0.05
  9
$TEXTSTYLE
  7
STANDARD
  9
$CLAYER
  8
0
  9
$CELTYPE
  6
BYLAYER
  9
$CECOLOR
 62
   256
  9
$DIMSCALE
 40
1.0
  9
$DIMASZ
 40
0.18
  9
$DIMEXO
 40
0.0625
  9
$DIMDLI
 40
0.38
  9
$DIMRND
 40
0.0
  9
$DIMDLE
 40
0.0
  9
$DIMEXE
 40
0.18
  9
$DIMTP
 40
0.0
  9
$DIMTM
 40
0.0
  9
$DIMTXT
 40
0.18
  9
$DIMCEN
 40
0.09
  9
$DIMTSZ
 40
0.0
  9
$DIMTOL
 70
     0
  9
$DIMLIM
 70
     0
  9
$DIMTIH
 70
     1
  9
$DIMTOH
 70
     1
  9
$DIMSE1
 70
     0
  9
$DIMSE2
 70
     0
  9
$DIMTAD
 70
     0
  9
$DIMZIN
 70
     0
  9
$DIMBLK
  1

  9
$DIMASO
 70
     1
  9
$DIMSHO
 70
     1
  9
$DIMPOST
  1

  9
$DIMAPOST
  1

  9
$DIMALT
 70
     0
  9
$DIMALTD
 70
     2
  9
$DIMALTF
 40
25.399999999999999
  9
$DIMLFAC
 40
1.0
  9
$DIMTOFL
 70
     0
  9
$DIMTVP
 40
0.0
  9
$DIMTIX
 70
     0
  9
$DIMSOXD
 70
     0
  9
$DIMSAH
 70
     0
  9
$DIMBLK1
  1

  9
$DIMBLK2
  1

  9
$DIMSTYLE
  2
STANDARD
  9
$DIMCLRD
 70
     0
  9
$DIMCLRE
 70
     0
  9
$DIMCLRT
 70
     0
  9
$DIMTFAC
 40
1.0
  9
$DIMGAP
 40
0.09
  9
$LUNITS
 70
     2
  9
$LUPREC
 70
     4
  9
$SKETCHINC
 40
0.1
  9
$FILLETRAD
 40
0.0
  9
$AUNITS
 70
     0
  9
$AUPREC
 70
     0
  9
$MENU
  1
.
  9
$ELEVATION
 40
0.0
  9
$PELEVATION
 40
0.0
  9
$THICKNESS
 40
0.0
  9
$LIMCHECK
 70
     0
  9
$BLIPMODE
 70
     0
  9
$CHAMFERA
 40
0.0
  9
$CHAMFERB
 40
0.0
  9
$SKPOLY
 70
     0
  9
$TDCREATE
 40
2457375.5645899768
  9
$TDUPDATE
 40
2457378.983816158
  9
$TDINDWG
 40
0.0001279167
  9
$TDUSRTIMER
 40
0.0001279167
  9
$USRTIMER
 70
     1
  9
$ANGBASE
 50
0.0
  9
$ANGDIR
 70
     0
  9
$PDMODE
 70
     0
  9
$PDSIZE
 40
0.0
  9
$PLINEWID
 40
0.0
  9
$COORDS
 70
     2
  9
$SPLFRAME
 70
     0
  9
$SPLINETYPE
 70
     6
  9
$SPLINESEGS
 70
     8
  9
$ATTDIA
 70
     0
  9
$ATTREQ
 70
     0
  9
$HANDLING
 70
     1
  9
$HANDSEED
  5
27D
  9
$SURFTAB1
 70
     6
  9
$SURFTAB2
 70
     6
  9
$SURFTYPE
 70
     6
  9
$SURFU
 70
     6
  9
$SURFV
 70
     6
  9
$UCSNAME
  2

  9
$UCSORG
 10
0.0
 20
0.0
 30
0.0
  9
$UCSXDIR
 10
1.0
 20
0.0
 30
0.0
  9
$UCSYDIR
 10
0.0
 20
1.0
 30
0.0
  9
$PUCSNAME
  2

  9
$PUCSORG
 10
0.0
 20
0.0
 30
0.0
  9
$PUCSXDIR
 10
1.0
 20
0.0
 30
0.0
  9
$PUCSYDIR
 10
0.0
 20
1.0
 30
0.0
  9
$USERI1
 70
     0
  9
$USERI2
 70
     0
  9
$USERI3
 70
     0
  9
$USERI4
 70
     0
  9
$USERI5
 70
     0
  9
$USERR1
 40
0.0
  9
$USERR2
 40
0.0
  9
$USERR3
 40
0.0
  9
$USERR4
 40
0.0
  9
$USERR5
 40
0.0
  9
$WORLDVIEW
 70
     1
  9
$SHADEDGE
 70
     3
  9
$SHADEDIF
 70
    70
  9
$TILEMODE
 70
     1
  9
$MAXACTVP
 70
    64
  9
$PLIMCHECK
 70
     0
  9
$PEXTMIN
 10
0.0
 20
0.0
 30
0.0
  9
$PEXTMAX
 10
0.0
 20
0.0
 30
0.0
  9
$PLIMMIN
 10
0.0
 20
0.0
  9
$PLIMMAX
 10
12.0
 20
9.0
  9
$UNITMODE
 70
     0
  9
$VISRETAIN
 70
     1
  9
$PLINEGEN
 70
     0
  9
$PSLTSCALE
 70
     1
  0
ENDSEC
  0
SECTION
  2
TABLES
  0
TABLE
  2
VPORT
 70
     1
  0
VPORT
  2
*ACTIVE
 70
     0
 10
0.0
 20
0.0
 11
1.0
 21
1.0
 12
152.98887183262531
 22
-11.29946428542752
 13
0.0
 23
0.0
 14
1.0
 24
1.0
 15
0.0
 25
0.0
 16
0.0
 26
0.0
 36
1.0
 17
0.0
 27
0.0
 37
0.0
 40
134.94141590582461
 41
1.7244755244755241
 42
50.0
 43
0.0
 44
0.0
 50
0.0
 51
0.0
 71
     0
 72
  1000
 73
     1
 74
     3
 75
     0
 76
     0
 77
     0
 78
     0
  0
ENDTAB
  0
TABLE
  2
LTYPE
 70
     1
  0
LTYPE
  2
CONTINUOUS
 70
     0
  3
Solid line
 72
    65
 73
     0
 40
0.0
  0
ENDTAB
  0
TABLE
  2
LAYER
 70
     5
  0
LAYER
  2
0
 70
     0
 62
     7
  6
CONTINUOUS
  0
LAYER
  2
DEFPOINTS
 70
     0
 62
     7
  6
CONTINUOUS
  0
ENDTAB
  0
TABLE
  2
STYLE
 70
     3
  0
STYLE
  2
STANDARD
 70
     0
 40
0.0
 41
1.0
 50
0.0
 71
     0
 42
0.2
  3
txt
  4

  0
STYLE
  2
ARIAL
 70
     0
 40
2.9505988023952101
 41
1.0
 50
0.0
 71
     0
 42
0.2
  3
txt
  4

  0
ENDTAB
  0
TABLE
  2
VIEW
 70
     0
  0
ENDTAB
  0
TABLE
  2
UCS
 70
     0
  0
ENDTAB
  0
TABLE
  2
APPID
 70
     5
  0
APPID
  2
ACAD
 70
     0
  0
APPID
  2
ACADANNOTATIVE
 70
     0
  0
APPID
  2
REVIT
 70
     0
  0
APPID
  2
ACAD_NAV_VCDISPLAY
 70
     0
  0
APPID
  2
ACAD_MLEADERVER
 70
     0
  0
ENDTAB
  0
TABLE
  2
DIMSTYLE
 70
     4
  0
DIMSTYLE
  2
STANDARD
 70
     0
  3

  4

  5

  6

  7

 40
1.0
 41
0.18
 42
0.0625
 43
0.38
 44
0.18
 45
0.0
 46
0.0
 47
0.0
 48
0.0
140
0.18
141
0.09
142
0.0
143
25.399999999999999
144
1.0
145
0.0
146
1.0
147
0.09
 71
     0
 72
     0
 73
     1
 74
     1
 75
     0
 76
     0
 77
     0
 78
     0
170
     0
171
     2
172
     0
173
     0
174
     0
175
     0
176
     0
177
     0
178
     0
  0
DIMSTYLE
  2
LINEAR
 70
     0
  3
<>
  4

  5

  6
OBLIQUE
  7
OBLIQUE
 40
304.80000000000001
 41
0.0065616797900262
 42
0.0065616797900262
 43
0.38
 44
0.0065616797900262
 45
0.01
 46
0.0
 47
0.0
 48
0.0
140
3.0
141
0.09
142
0.0
143
25.399999999999999
144
1.0
145
1.0
146
1.0
147
0.0065616797900262
 71
     0
 72
     0
 73
     0
 74
     0
 75
     0
 76
     0
 77
     1
 78
     0
170
     0
171
     2
172
     1
173
     1
174
     1
175
     0
176
     0
177
     0
178
     0
  0
DIMSTYLE
  2
ANGULAR
 70
     0
  3
<>
  4

  5

  6
OBLIQUE
  7
OBLIQUE
 40
304.80000000000001
 41
0.0065616797900262
 42
0.0065616797900262
 43
0.38
 44
0.0065616797900262
 45
0.0
 46
0.0
 47
0.0
 48
0.0
140
3.0
141
0.09
142
0.0
143
25.399999999999999
144
1.0
145
1.0
146
1.0
147
0.0065616797900262
 71
     0
 72
     0
 73
     0
 74
     0
 75
     0
 76
     0
 77
     1
 78
     0
170
     0
171
     2
172
     1
173
     1
174
     1
175
     0
176
     0
177
     0
178
     0
  0
ENDTAB
  0
ENDSEC
  0
SECTION
  2
BLOCKS
  0
BLOCK
  8
0
  2
$MODEL_SPACE
 70
     0
 10
0.0
 20
0.0
 30
0.0
  3
$MODEL_SPACE
  1

  0
ENDBLK
  5
72
  8
0
  0
BLOCK
 67
     1
  8
0
  2
$PAPER_SPACE
 70
     0
 10
0.0
 20
0.0
 30
0.0
  3
$PAPER_SPACE
  1

  0
ENDBLK
  5
76
 67
     1
  8
0
  0
BLOCK
  8
0
  2
_OBLIQUE
 70
     0
 10
0.0
 20
0.0
 30
0.0
  3
_OBLIQUE
  1

  0
LINE
  5
A2
  8
0
  6
BYBLOCK
 62
     0
 10
-0.5
 20
-0.5
 30
0.0
 11
0.5
 21
0.5
 31
0.0
  0
ENDBLK
  5
A4
  8
0
  0
BLOCK
  8
0
  2
DIMBLOCK1-REF__LEVEL
 70
     0
 10
0.0
 20
0.0
 30
0.0
  3
DIMBLOCK1-REF__LEVEL
  1

  0
LINE
  5
1AC
  8
0
 62
     0
 10
-22.382471735653031
 20
69.000000000000185
 30
0.0
 11
-23.79668529802634
 21
69.000000000000185
 31
0.0
  0
LINE
  5
1AD
  8
0
 62
     0
 10
-22.382471735653251
 20
0.0000000000001906
 30
0.0
 11
-23.79668529802635
 21
0.000000000000191
 31
0.0
  0
LINE
  5
1AE
  8
0
 62
     0
 10
-21.79668529802634
 20
69.000000000000185
 30
0.0
 11
-21.79668529802635
 21
0.0000000000001904
 31
0.0
  0
INSERT
  5
1AF
  8
0
 62
     0
  2
_OBLIQUE
 10
-21.79668529802634
 20
69.000000000000185
 30
0.0
 41
2.0
 42
2.0
 43
2.0
 50
90.0
  0
INSERT
  5
1B0
  8
0
 62
     0
  2
_OBLIQUE
 10
-21.79668529802635
 20
0.0000000000001904
 30
0.0
 41
2.0
 42
2.0
 43
2.0
 50
270.0
  0
INSERT
  5
1B1
  8
0
  2
*U15
 10
0.0
 20
0.0
 30
0.0
  0
POINT
  5
1B2
  8
DEFPOINTS
 62
     0
 10
-20.382471735653041
 20
69.000000000000185
 30
0.0
  0
POINT
  5
1B3
  8
DEFPOINTS
 62
     0
 10
-20.382471735653251
 20
0.00000000000019
 30
0.0
  0
POINT
  5
1B4
  8
DEFPOINTS
 62
     0
 10
-21.79668529802635
 20
0.0000000000001904
 30
0.0
  0
ENDBLK
  5
9F
  8
0
  0
BLOCK
  8
0
  2
DIMBLOCK2-REF__LEVEL
 70
     0
 10
0.0
 20
0.0
 30
0.0
  3
DIMBLOCK2-REF__LEVEL
  1

  0
LINE
  5
1A3
  8
0
 62
     0
 10
51.999999999999957
 20
-14.12951042912486
 30
0.0
 11
62.973894889031641
 21
-14.129510429124871
 31
0.0
  0
LINE
  5
1A4
  8
0
 62
     0
 10
51.999999999999943
 20
-30.12951042912491
 30
0.0
 11
62.973894889031627
 21
-30.12951042912491
 31
0.0
  0
LINE
  5
1A5
  8
0
 62
     0
 10
60.973894889031627
 20
-14.129510429124871
 30
0.0
 11
60.973894889031627
 21
-30.12951042912491
 31
0.0
  0
INSERT
  5
1A6
  8
0
 62
     0
  2
_OBLIQUE
 10
60.973894889031627
 20
-14.129510429124871
 30
0.0
 41
2.0
 42
2.0
 43
2.0
 50
90.0
  0
INSERT
  5
1A7
  8
0
 62
     0
  2
_OBLIQUE
 10
60.973894889031627
 20
-30.12951042912491
 30
0.0
 41
2.0
 42
2.0
 43
2.0
 50
270.0
  0
INSERT
  5
1A8
  8
0
  2
*U14
 10
0.0
 20
0.0
 30
0.0
  0
POINT
  5
1A9
  8
DEFPOINTS
 62
     0
 10
49.999999999999957
 20
-14.12951042912486
 30
0.0
  0
POINT
  5
1AA
  8
DEFPOINTS
 62
     0
 10
49.999999999999943
 20
-30.12951042912491
 30
0.0
  0
POINT
  5
1AB
  8
DEFPOINTS
 62
     0
 10
60.973894889031627
 20
-30.12951042912491
 30
0.0
  0
ENDBLK
  5
C0
  8
0
  0
BLOCK
  8
0
  2
DIMBLOCK3-REF__LEVEL
 70
     0
 10
0.0
 20
0.0
 30
0.0
  3
DIMBLOCK3-REF__LEVEL
  1

  0
LINE
  5
198
  8
0
 62
     0
 10
48.58578643762683
 20
-31.543723991497991
 30
0.0
 11
40.262707546085309
 21
-39.86680288303949
 31
0.0
  0
LINE
  5
199
  8
0
 62
     0
 10
52.121320343559532
 20
-35.079257897430701
 30
0.0
 11
43.798241452017997
 21
-43.402336788972192
 31
0.0
  0
LINE
  5
19A
  8
0
 62
     0
 10
41.676921108458401
 20
-38.452589320666391
 30
0.0
 11
40.262707546085309
 21
-37.038375758293299
 31
0.0
  0
LINE
  5
19B
  8
0
 62
     0
 10
45.212455014391097
 20
-41.9881232265991
 30
0.0
 11
46.626668576764189
 21
-43.4023367889722
 31
0.0
  0
LINE
  5
19C
  8
0
 62
     0
 10
41.676921108458401
 20
-38.452589320666391
 30
0.0
 11
45.212455014391097
 21
-41.9881232265991
 31
0.0
  0
INSERT
  5
19D
  8
0
 62
     0
  2
_OBLIQUE
 10
41.676921108458401
 20
-38.452589320666391
 30
0.0
 41
2.0
 42
2.0
 43
2.0
 50
314.99999999999989
  0
INSERT
  5
19E
  8
0
 62
     0
  2
_OBLIQUE
 10
45.212455014391097
 20
-41.9881232265991
 30
0.0
 41
2.0
 42
2.0
 43
2.0
 50
134.99999999999989
  0
INSERT
  5
19F
  8
0
  2
*U13
 10
0.0
 20
0.0
 30
0.0
  0
POINT
  5
1A0
  8
DEFPOINTS
 62
     0
 10
49.999999999999943
 20
-30.129510429124899
 30
0.0
  0
POINT
  5
1A1
  8
DEFPOINTS
 62
     0
 10
53.535533905932631
 20
-33.665044335057608
 30
0.0
  0
POINT
  5
1A2
  8
DEFPOINTS
 62
     0
 10
45.212455014391097
 20
-41.9881232265991
 30
0.0
  0
ENDBLK
  5
DA
  8
0
  0
BLOCK
  8
0
  2
DIMBLOCK4-REF__LEVEL
 70
     0
 10
0.0
 20
0.0
 30
0.0
  3
DIMBLOCK4-REF__LEVEL
  1

  0
LINE
  5
18E
  8
0
 62
     0
 10
67.55214010589961
 20
-18.832592195938719
 30
0.0
 11
63.688436800743361
 21
-17.797316015528629
 31
0.0
  0
LINE
  5
18F
  8
0
 62
     0
 10
70.031497904539876
 20
-0.0000000000001403
 30
0.0
 11
66.031497904539904
 21
-0.0000000000001261
 31
0.0
  0
ARC
  5
190
  8
0
 62
     0
 10
-2.732050807568374
 20
0.000000000000093
 30
0.0
 40
70.763548712108275
 50
344.99999999999977
 51
359.99999999999977
  0
INSERT
  5
191
  8
0
 62
     0
  2
_OBLIQUE
 10
65.620288453321493
 20
-18.31495410573369
 30
0.0
 41
2.0
 42
2.0
 43
2.0
 50
254.9999999999998
  0
INSERT
  5
192
  8
0
 62
     0
  2
_OBLIQUE
 10
68.031497904539904
 20
-0.0000000000001457
 30
0.0
 41
2.0
 42
2.0
 43
2.0
 50
89.999999999999758
  0
INSERT
  5
193
  8
0
  2
*U12
 10
0.0
 20
0.0
 30
0.0
  0
POINT
  5
194
  8
DEFPOINTS
 62
     0
 10
-2.732050807568374
 20
0.000000000000093
 30
0.0
  0
POINT
  5
195
  8
DEFPOINTS
 62
     0
 10
69.483991758477742
 20
-19.350230286143759
 30
0.0
  0
POINT
  5
196
  8
DEFPOINTS
 62
     0
 10
72.03149790453989
 20
-0.0000000000001457
 30
0.0
  0
POINT
  5
197
  8
DEFPOINTS
 62
     0
 10
66.956440594772843
 20
-12.287961279102779
 30
0.0
  0
ENDBLK
  5
F8
  8
0
  0
BLOCK
  8
0
  2
DIMBLOCK5-REF__LEVEL
 70
     0
 10
0.0
 20
0.0
 30
0.0
  3
DIMBLOCK5-REF__LEVEL
  1

  0
LINE
  5
185
  8
0
 62
     0
 10
-0.0000000000001926
 20
-92.184715008482101
 30
0.0
 11
-0.0000000000001927
 21
-93.598928570855222
 31
0.0
  0
LINE
  5
186
  8
0
 62
     0
 10
49.999999999999822
 20
-92.184715008482186
 30
0.0
 11
49.999999999999822
 21
-93.598928570855222
 31
0.0
  0
LINE
  5
187
  8
0
 62
     0
 10
-0.0000000000001925
 20
-91.598928570855207
 30
0.0
 11
49.999999999999822
 21
-91.598928570855207
 31
0.0
  0
INSERT
  5
188
  8
0
 62
     0
  2
_OBLIQUE
 10
-0.0000000000001925
 20
-91.598928570855207
 30
0.0
 41
2.0
 42
2.0
 43
2.0
 50
180.0
  0
INSERT
  5
189
  8
0
 62
     0
  2
_OBLIQUE
 10
49.999999999999822
 20
-91.598928570855207
 30
0.0
 41
2.0
 42
2.0
 43
2.0
  0
INSERT
  5
18A
  8
0
  2
*U11
 10
0.0
 20
0.0
 30
0.0
  0
POINT
  5
18B
  8
DEFPOINTS
 62
     0
 10
-0.0000000000001925
 20
-90.184715008482101
 30
0.0
  0
POINT
  5
18C
  8
DEFPOINTS
 62
     0
 10
49.999999999999822
 20
-90.184715008482186
 30
0.0
  0
POINT
  5
18D
  8
DEFPOINTS
 62
     0
 10
49.999999999999822
 20
-91.598928570855207
 30
0.0
  0
ENDBLK
  5
114
  8
0
  0
BLOCK
  8
0
  2
DIMBLOCK6-REF__LEVEL
 70
     0
 10
0.0
 20
0.0
 30
0.0
  3
DIMBLOCK6-REF__LEVEL
  1

  0
LINE
  5
17C
  8
0
 62
     0
 10
-2.0000000000000391
 20
-4.1555974846156962
 30
0.0
 11
-12.174145253394521
 21
-4.1555974846156927
 31
0.0
  0
LINE
  5
17D
  8
0
 62
     0
 10
-1.9999999999999909
 20
25.844402515384299
 30
0.0
 11
-12.17414525339451
 21
25.84440251538431
 31
0.0
  0
LINE
  5
17E
  8
0
 62
     0
 10
-10.174145253394521
 20
-4.1555974846156927
 30
0.0
 11
-10.17414525339451
 21
25.84440251538431
 31
0.0
  0
INSERT
  5
17F
  8
0
 62
     0
  2
_OBLIQUE
 10
-10.174145253394521
 20
-4.1555974846156927
 30
0.0
 41
2.0
 42
2.0
 43
2.0
 50
270.0
  0
INSERT
  5
180
  8
0
 62
     0
  2
_OBLIQUE
 10
-10.17414525339451
 20
25.84440251538431
 30
0.0
 41
2.0
 42
2.0
 43
2.0
 50
90.0
  0
INSERT
  5
181
  8
0
  2
*U10
 10
0.0
 20
0.0
 30
0.0
  0
POINT
  5
182
  8
DEFPOINTS
 62
     0
 10
-0.0000000000000402
 20
-4.1555974846156971
 30
0.0
  0
POINT
  5
183
  8
DEFPOINTS
 62
     0
 10
0.0000000000000085
 20
25.844402515384299
 30
0.0
  0
POINT
  5
184
  8
DEFPOINTS
 62
     0
 10
-10.17414525339451
 20
25.84440251538431
 30
0.0
  0
ENDBLK
  5
12E
  8
0
  0
BLOCK
  8
0
  2
DIMBLOCK7-REF__LEVEL
 70
     0
 10
0.0
 20
0.0
 30
0.0
  3
DIMBLOCK7-REF__LEVEL
  1

  0
LINE
  5
173
  8
0
 62
     0
 10
-0.0000000000001714
 20
-80.322441319222875
 30
0.0
 11
-0.0000000000001715
 21
-81.73665488159601
 31
0.0
  0
LINE
  5
174
  8
0
 62
     0
 10
29.999999999999829
 20
-80.322441319222946
 30
0.0
 11
29.999999999999829
 21
-81.73665488159601
 31
0.0
  0
LINE
  5
175
  8
0
 62
     0
 10
-0.0000000000001714
 20
-79.73665488159601
 30
0.0
 11
29.999999999999829
 21
-79.73665488159601
 31
0.0
  0
INSERT
  5
176
  8
0
 62
     0
  2
_OBLIQUE
 10
-0.0000000000001714
 20
-79.73665488159601
 30
0.0
 41
2.0
 42
2.0
 43
2.0
 50
180.0
  0
INSERT
  5
177
  8
0
 62
     0
  2
_OBLIQUE
 10
29.999999999999829
 20
-79.73665488159601
 30
0.0
 41
2.0
 42
2.0
 43
2.0
  0
INSERT
  5
178
  8
0
  2
*U9
 10
0.0
 20
0.0
 30
0.0
  0
POINT
  5
179
  8
DEFPOINTS
 62
     0
 10
-0.0000000000001713
 20
-78.322441319222889
 30
0.0
  0
POINT
  5
17A
  8
DEFPOINTS
 62
     0
 10
29.999999999999829
 20
-78.32244131922296
 30
0.0
  0
POINT
  5
17B
  8
DEFPOINTS
 62
     0
 10
29.999999999999829
 20
-79.73665488159601
 30
0.0
  0
ENDBLK
  5
148
  8
0
  0
BLOCK
  8
0
  2
*U9
 70
     1
 10
0.0
 20
0.0
 30
0.0
  3
*U9
  1

  0
TEXT
  5
262
  8
0
 62
     0
 10
9.8545662767233253
 20
-77.678286965313973
 30
0.0
 40
2.9505988023952101
  1
30.00
  7
ARIAL
  0
ENDBLK
  5
264
  8
0
  0
BLOCK
  8
0
  2
*U10
 70
     1
 10
0.0
 20
0.0
 30
0.0
  3
*U10
  1

  0
TEXT
  5
266
  8
0
 62
     0
 10
-12.232513169676549
 20
5.6989687921077969
 30
0.0
 40
2.9505988023952101
  1
30.00
 50
90.0
  7
ARIAL
  0
ENDBLK
  5
268
  8
0
  0
BLOCK
  8
0
  2
*U11
 70
     1
 10
0.0
 20
0.0
 30
0.0
  3
*U11
  1

  0
TEXT
  5
26A
  8
0
 62
     0
 10
19.85557262010748
 20
-89.542573341341509
 30
0.0
 40
2.9505988023952101
  1
50.00
  7
ARIAL
  0
ENDBLK
  5
26C
  8
0
  0
BLOCK
  8
0
  2
*U12
 70
     1
 10
0.0
 20
0.0
 30
0.0
  3
*U12
  1

  0
TEXT
  5
26E
  8
0
 62
     0
 10
64.595146110884428
 20
-14.985421958792079
 30
0.0
 40
2.9505988023952101
  1
15.00°
 50
82.499999999999758
  7
ARIAL
  0
ENDBLK
  5
270
  8
0
  0
BLOCK
  8
0
  2
*U13
 70
     1
 10
0.0
 20
0.0
 30
0.0
  3
*U13
  1

  0
TEXT
  5
272
  8
0
 62
     0
 10
42.071594854379612
 20
-35.939137611952532
 30
0.0
 40
2.9505988023952101
  1
5.00
 50
314.99999999999989
  7
ARIAL
  0
ENDBLK
  5
274
  8
0
  0
BLOCK
  8
0
  2
*U14
 70
     1
 10
0.0
 20
0.0
 30
0.0
  3
*U14
  1

  0
TEXT
  5
276
  8
0
 62
     0
 10
58.917539659517949
 20
-27.412813196033088
 30
0.0
 40
2.9505988023952101
  1
16.00
 50
90.0
  7
ARIAL
  0
ENDBLK
  5
278
  8
0
  0
BLOCK
  8
0
  2
*U15
 70
     1
 10
0.0
 20
0.0
 30
0.0
  3
*U15
  1

  0
TEXT
  5
27A
  8
0
 62
     0
 10
-23.853040527540031
 20
29.363623367181241
 30
0.0
 40
2.9505988023952101
  1
69.00
 50
90.0
  7
ARIAL
  0
ENDBLK
  5
27C
  8
0
  0
ENDSEC
  0
SECTION
  2
ENTITIES
  0
LINE
  5
88
  8
0
 10
1.000000000000268
 20
69.000000000000114
 30
0.0
 11
1.000000000000268
 21
0.0000000000000423
 31
0.0
1001
REVIT
1002
{
1070
     1
1000
250482
1002
}
1002
{
1070
     2
1000
-2002000
1002
}
1002
{
1070
     3
1000
206783
1002
}
  0
LINE
  5
89
  8
0
 10
49.999999999999972
 20
-14.129510429124871
 30
0.0
 11
49.999999999999943
 21
-30.12951042912491
 31
0.0
1001
REVIT
1002
{
1070
     1
1000
250483
1002
}
1002
{
1070
     2
1000
-2002000
1002
}
1002
{
1070
     3
1000
206783
1002
}
  0
LINE
  5
8A
  8
0
 10
49.999999999999957
 20
-14.12951042912486
 30
0.0
 11
21.000000000000259
 21
-6.3589838486222838
 31
0.0
1001
REVIT
1002
{
1070
     1
1000
250484
1002
}
1002
{
1070
     2
1000
-2002000
1002
}
1002
{
1070
     3
1000
206783
1002
}
  0
LINE
  5
8B
  8
0
 10
29.000000000000259
 20
-7.5025773880714777
 30
0.0
 11
1.0000000000002589
 21
0.0000000000000412
 31
0.0
1001
REVIT
1002
{
1070
     1
1000
250486
1002
}
1002
{
1070
     2
1000
-2002000
1002
}
1002
{
1070
     3
1000
206783
1002
}
  0
LINE
  5
8C
  8
0
 10
25.681483474218609
 20
-8.6839359257390907
 30
0.0
 11
-0.0000000000000381
 21
-4.1555974846156971
 31
0.0
1001
REVIT
1002
{
1070
     1
1000
250487
1002
}
1002
{
1070
     2
1000
-2002000
1002
}
1002
{
1070
     3
1000
206783
1002
}
  0
LINE
  5
8D
  8
0
 10
-0.0000000000000402
 20
-4.1555974846156971
 30
0.0
 11
0.0000000000000087
 21
25.844402515384299
 31
0.0
1001
REVIT
1002
{
1070
     1
1000
250489
1002
}
1002
{
1070
     2
1000
-2002000
1002
}
1002
{
1070
     3
1000
206783
1002
}
  0
LINE
  5
8E
  8
0
 10
49.999999999999943
 20
-30.12951042912491
 30
0.0
 11
53.535533905932638
 21
-33.665044335057623
 31
0.0
1001
REVIT
1002
{
1070
     1
1000
250491
1002
}
1002
{
1070
     2
1000
-2002000
1002
}
1002
{
1070
     3
1000
206783
1002
}
  0
LINE
  5
8F
  8
0
 10
25.681483474218609
 20
-8.6839359257390907
 30
0.0
 11
28.52457227347584
 21
-11.52702472499633
 31
0.0
1001
REVIT
1002
{
1070
     1
1000
250494
1002
}
1002
{
1070
     2
1000
-2002000
1002
}
1002
{
1070
     3
1000
206783
1002
}
  0
ENDSEC
  0
EOF
